PrimaNota.ru - самый крупный в мире бесплатный архив песенных текстов, аккордов, табулатур и нот


Tucker Michael - Ever - таба, видео

Регистрация Запомнить меня
Войти через:  Facebook Google Twitter Vk Yandex Mail.ru

Tucker Michael - Ever - таба, видео

Печатать
Просмотров: 61
"Ever" by Michael Tucker

Tab by Maicol


The recorded version of this song is played on a classical
guitar and doubled by an acoustic guitar.  Some post-
production editing has deepened the tone, so a guitar
in standard tuning will not match the pitch of the recording.
Tucker picks the entire song with thumb and forefinger.
The labeled chords should help with the finger position,
the picking pattern may take some practice.

Verse

    G         D         Em  
e--------------------0----------------------------
B---0------0--3----3----0------0-----0------------
G--------0-------2---------0-----0-----0----------
D------0------0--------------2-----2--------------
A-------------------------------------------------
E---3-------------------0-------------------------


    C         Em        D
e------------------------------2h3p2-0------------
B---1----1-3--0------0--3----3---------3-1--------
G------0-----------0-------2----------------------
D----------------2------0-------------------------
A---3---------------------------------------------
E-------------0-----------------------------------


    G         D         Em  
e--------------------0----------------------------
B---0------0--3----3----0------0-----0------------
G--------0-------2---------0-----0-----0----------
D------0------0--------------2-----2--------------
A-------------------------------------------------
E---3-------------------0-------------------------


    C         Em        D         Am7
e------------------------------0------------------
B---1----1-3--0------0--3----3----1------1--------
G------0-----------0-------2-----------0----------
D----------------2------0------------2------------
A---3-----------------------------0---------------
E-------------0-----------------------------------


Bridge

    Em7/B     C         Em      D              
e------------------------------------------
B---3----3----5----5----8----8--7----7-----
G------0---0-----0---0-----0-------0---0---    Repeat 3x
D----------------------------------------0-
A---2---------3---------7-------5----------
E------------------------------------------


    Cmaj7             D       
e------------------------------------------
B---0------0-----0---------3---3-1-0-------
G------0-----0-----0-----2-----------2-----
D--------2-----2------0------0-------------
A---3--------------------------------------
E------------------------------------------

End

    G         D         Em  
e--------------------0----------------------------
B---0------0--3----3----0------0-----0------------
G--------0-------2---------0-----0-----0----------
D------0------0--------------2-----2--------------
A-------------------------------------------------
E---3-------------------0-------------------------


    C         D         Em        
e--------------------0----------------------------
B---1----1-0--3----3----0------0-----0------------
G------0---------2-----------0---0-----0----------
D-------------0------------2-------2--------------
A---3---------------------------------------------
E-----------------------0-------------------------


    C         D         Em        
e------------------0-0----------------------------
B---1----1-0--3---------0------0-----0------------
G------0---------2-----------0---0-----0----------
D-------------0------------2-------2--------------
A---3---------------------------------------------
E-----------------------0-------------------------


    C         D             G    
e------------------3p2-0h2--3---------------------
B---1----1-0--3-------------3---------------------
G------0---------2----------0---------------------
D-------------0-------------0---------------------
A---3-----------------------2---------------------
E---------------------------3---------------------

     
Добавлено: 02.09.2013
Другие материалы по этой песне:
  • Аккорды и текст

Страница создана 02.09.2013
http://primanota.ru/tucker-michael/ever-chords.htm
Привет, Гость.
Предлагаем пройти революционный курс по гитаре.
Подарок от PrimaNota.Ru, забирай!