PrimaNota.ru - самый крупный в мире бесплатный архив песенных текстов, аккордов, табулатур и нот


Tuck Andress - Sweet P - таба, видео

Регистрация Запомнить меня
Войти через:  Facebook Google Twitter Vk Yandex Mail.ru

Tuck Andress - Sweet P - таба, видео

Печатать
Просмотров: 61
**This transcription is made by Paul Magpantay. Email 
**me at polmagp@yahoo.com for comments or suggestions.
**This really isn't a precise tab, but I hope Tuck fans**
**would find this helpful. I just laid out the chords 
**for you and kept it as simple as i can. It's up to  
**you to improvise and be creative especially  on the 
**funky part. Good luck.                              
*********************************************************
*********************************************************
                                                    
E||----------5/---7-------|------5/-7-----------5--|
B||---3--------------8----|------------8-----------|
G||*--0------0------------|---------------7--------|
D||*----------------------|------------------9/----|
A||------------------8----|------------------------|
E||---3-------------------|------------------------|


                                                      
-------------------------|--------0-----------0-----||
--------3-----3-----3----|--1-----1--3-----3--3-----||
-----0--0--0--0--0--0----|--0--0--0--0--0--0--0----*||
-----4--4--4--4--4-------|--2--2-----4--4----------*||
-------------------------|--0--------2--------------||
--0-----------0----------|--------------------------||


                                                   
---------5/---7-------|--5/-7--------8--5/7----5--|
--3--------------8----|--------8------------------|
--0------0------------|-----------7---------x-----|
----------------------|---------------------------|
-----------------8----|---------------------------|
--3-------------------|---------------------------|


                                                    
-------------------------|--------0-----------0----|
--------3-----3-----3----|--1-----1--3-----3--3----|
-----0--0--0--0--0--0----|--0--0--0--0--0--0--0----|
-----4--4--4--4--4-------|--2--2-----4--4----------|
-------------------------|--0--------2-------------|
--0-----------0----------|-------------------------|


                                                  
---------5/---7-------|------5/-7-----------8/10-|
--3--------------8----|------------8-------------|
--0------0------------|---------------7----------|
----------------------|------------------x-------|
-----------------8----|--------------------------|
--3-------------------|--------------------------|


                                                 
--------------------------|--0------0------0----|
-----------7h8h7----------|--1------3------0----|
------------------7-------|--0------0------0----|
--------9------------9/---|--2------4------2----|
-----7--------------------|--0------2------2----|
--0-----------------------|----------------0----|


                                               
-------0-----0-----0----|--0------0------0----|
-------0-----0-----0----|--1------3------0----|
-------0-----0-----0----|--0------0------0----|
----2--2--2--2--2--2----|--2------4------2----|
----2-----2-----2-------|--0------2------2----|
----0-----0-----0-------|----------------0----|


                                               
-------0----------------|--0------0------0----|
-------0----------------|--1------3------0----|
-------0-----0--0-------|--0------0------0----|
----2--2---2-------2/---|--2------4------2----|
----2-------------------|--0------2------2----|
----0-------------------|----------------0----|


                                                
-------------------------|--0------0------0----|
-------------------------|--1------3------1----|
-------0h2--2-0----------|--0------0------0----|
----2------------2--2/---|--2------4------3----|
-------------------------|--0------2------3----|
-------------------------|----------------1----|


                                                      

--------------0-----------||--------------------------|
-----------------1--------||---7----x-x-x-x-----------|
-----------0--------0-----||*--5----x-x-x-x-----------|
--------3--------------3--||*--5----x-x-x-x-----------|
-----3--------------------||---0----x-x-x-x-0--0------|
--1-----------------------||--------------------------|


                                                      
 
---------------------------||--------------------------|
--7----x-x-x-x----7--8-----||---7----x-x-x-x-----------|
--5----x-x-x-x----5--6----*||*--6----x-x-x-x-----------|
--5----x-x-x-x----5--6----*||*--5----x-x-x-x-----------|
--0----x-x-x-x-0-----------||---7----x-x-x-x----7------|
---------------------------||----------------0---------|


                                                      

---------------------------||-------------------------|
--7----x-x-x-x----7--8-----||--7----x-x-x-x-----------|
--6----x-x-x-x----6--7----*||--5----x-x-x-x-----------|
--5----x-x-x-x----5--6----*||--5----x-x-x-x-----------|
--7----x-x-x-x-------------||--0----x-x-x-x-0--0------|
---------------0-----------||-------------------------|


                                                      

--------------------------|---------------------------|
--7----x-x-x-x----7--8----|--7----x-x-x-x---------7-7-|
--5----x-x-x-x----5--6----|--5----x-x-x-x---------5-5-|
--5----x-x-x-x----5--6----|--5----x-x-x-x---------5-5-|
--0----x-x-x-x-0----------|--0----x-x-x-x-0--0----0-0-|
--------------------------|---------------------------|


                                                      
 
-----------------------------|-------------2-----------|
--7-7-7--7-------------------|----------------2--------|
--5-5-5--5------0-0-0--0-----|--0-------0--------0-----|
--5-5-5--5------0-0-0--0-----|--4----4--------------4--|
-----------------------------|--4----------------------|
------------0-0-3-3-3--3--0--|--2----------------------|


                                                 
-------------2----------|----------------0------|
----------------2-------|-------------3---------|
--0-------0--------0----|----------0------------|
--4----4----------------|--3----3---------------|
--4---------------------|--1--------------------|
--2---------------------|-----------------------|


                        
--1------------1------||
--3------------3------||
--3---------3---------||
--1------1------------||
----------------------||
----------------------||




__________________________________
     
Добавлено: 27.08.2013
Другие материалы по этой песне:
  • Аккорды и текст

Страница создана 27.08.2013
http://primanota.ru/tuck-andress/sweet-p-chords.htm
Привет, Гость.
Предлагаем пройти революционный курс по гитаре.
Подарок от PrimaNota.Ru, забирай!