PrimaNota.ru - самый крупный в мире бесплатный архив песенных текстов, аккордов, табулатур и нот


Tuck Andress - Manonash - таба, видео

Регистрация Запомнить меня
Войти через:  Facebook Google Twitter Vk Yandex Mail.ru

Tuck Andress - Manonash - таба, видео

Печатать
Просмотров: 94
This song is transcribed by Paul Magpantay. Email me
at polmagp@yahoo.com for comments and suggestions. 

This song employed a dropped-d tuning, so you better
tune your guitar first. On the middle part of the
song, the part where Tuck goes wild, he just played
around on open strings. I'll update this tab as soon
as I finish those parts. Meanwhile, just enjoy this.

                                                      
  
E||--------------------------|--------------------------|
B||--------------------------|--------------------------|
G||*-------------------------|--------------------------|
D||*-------3--------3--------|--3--------3-----------0--|
A||--------------x--------x--|--------x--------3--------|
D||---0-------x--------x-----|-----x--------0-----0-----|


                                                      
--------------------------|--------------------------|
--------------------------|--------------------------|
--------------------------|-----------4-----4-----2--|
--------3--------3--------|--3--------5-----5-----3--|
-----x--------x--------x--|--------x--5-----5--------|
--0--------x--------x-----|-----0--------x-----x--0--|


                                                     
-------------------------|--------------------------|
-------------------------|--------------------------|
-------------------------|--------------------------|
-------3--------3--------|--3--------3-----------0--|
----x--------x--------x--|--------x--------3--------|
----------x--------x-----|-----x--------0-----0-----|


                                                      
 
--------------------------|---------------------------||
--------------------------|---------------------------||
--------------------------|--5--------4-----4-----2--*||
--------3--------3--------|--5--------5-----5-----3--*||
-----x--------x--------x--|--------x--5-----5---------||
--0--------x--------x-----|-----0--------x-----x--0---||


                                                   
--------1--------------|--------------1-----------|
--------1----x------1--|-----1--3h-1--1--3--1--3--|
*------------x------0--|-----0--2--------2--0--2--|
*------------x---------|--------------------------|
-----------------------|--------------------------|
---0-------------------|--3-----------0-----------|


                                                    
-------1----------------|--------------------------|
-------1----------------|--------------------------|
------------------------|--------------------------|
---------------6-----6/-|--5-----5--------3-----5--|
------------------------|--------------------------|
--0---------6-----6-----|-----5-----0--3-----5-----|


                                                     
-----4h-3--1~------------|--------------1-----------|
-----3-----1~---x--1--x--|-----1--3h-1--1--3--1--3--|
----------------x--0--x--|-----0--2--------2--0--2--|
----------------x-----x--|--------------------------|
-------------------------|--------------------------|
--0----------------------|--3--------0--------------|


                                                      

-------------------------|---------------------------||
-----3~-1----------------|---------------------------||
-----2~-0----------------|--------------------------*||
----------------6-----6/-|--5-----5--------3-----7--*||
-------------------------|---------------------------||
--0----------6-----6-----|-----5-----0--3-----7------||


                                                      
   
---------------------------|-----------------------------|
---------12~---x-----------|--x--x--x--x-----------------|
---------12~---x-----------|--x--x--x--x-----10/-12--12--|
-----12-----------------0--|--x--x--x--x-----10/-12--12--|
------------------3/-5-----|--------------8--------------|
--0------------------------|-----------------------------|


                                                      
     
----------------------------|------------------------------|
---------12~---10-----------|--x--x------x--x--------------|
---------12~---10-----------|--x--x--12--x--x--12/-10--10--|
-----12------------------0--|--x--x--12--x--x--12/-10--10--|
-------------------3/-5-----|------------------------------|
--0-------------------------|------------------------------|


                                                      
    
----------------------------|-----------------------------|
---------12~---10-----------|--x--x--x--x--x--------------|
---------12~---10-----------|--x--x--x--x--x--12/-10--10--|
-----12------------------0--|--x--x--x--x--x--12/-10--10--|
-------------------3/-5-----|-----------------14/-12--12--|
--0-------------------------|-------------------------0---|


                                                      
     
----------------------------|------------------------------|
---------12~---10-----------|------------------------------|
---------12~---10-----------|------------------10/-12--12--|
-----12------------------0--|---------9--------10/-12--12--|
-------------------3/-5-----|-----10--------8--------------|
--0-------------------------|--x---------x-----------------|


                                                      
     
|--------13---------------|------8/-10--10--13--10--8--10--|
|--------13----x----x--x--|------8/-10--10--13--10--8--10--|
|*-------------x----x--x--|--------------------------------|
|*-------------x----x--x--|--------------------------------|
|-------------------------|--10----------------------------|
|---0---------------------|-----------------0--------------|


                                                      
-------10/---------------|---------------------------|
-------10/---------------|---------------------------|
-------------------------|---------------------------|
----------------6-----6/-|--5-----5--------3/-7--12/-|
-------------------------|---------------------------|
--0----------6-----6-----|-----5-----0--3------------|


                                                      
     
-----16h-15--13~-----------|-----8/-10--10--13--10--8--10--|
-----15------13~-----x--x--|--x--8/-10--10--13--10--8--10--|
---------------------x--x--|--x----------------------------|
---------------------x--x--|--x----------------------------|
---------------------------|-------------------------------|
--0------------------------|----------------0--------------|


                                                      

-------10/---------------|---------------------------||
-------10/---------------|---------------------------||
-------------------------|--------------------------*||
----------------6-----6/-|--5-----5--------3-----7--*||
-------------------------|---------------------------||
--0----------6-----6-----|-----5-----0--3-----7------||


                                    
-----10----------13------------10--|
-----10----------13------------10--|
-----------------------------------|
-------------10--------------------|
-----------------------------------|
--0------10----------10h11h12------|


                                   
----------13----------13/-15--15--|
----------13----------13/-15--15--|
----------12----------12----------|
----------------------------------|
------10------x-x-10--------------|
--10----------x-x-10--------------|


                                    
-----10----------13------------10--|
-----10----------13------------10--|
-----------------12----------------|
-------------10--------------------|
-----------------------------------|
--0------10----------10h11h12------|


                                 
------15----------15------------|
------15----------15/-13--13----|
------------------14/-12--12----|
--------------------------------|
--------------12----------------|
--12------12--------------------|


                                    
-----10----------13------------10--|
-----10----------13------------10--|
-----------------12----------------|
-------------10--------------------|
-----------------------------------|
--0------10----------10h11h12------|


                                   
----------13----------13/-15--15--|
----------13----------13/-15--15--|
----------12----------12----------|
----------------------------------|
------10----------10--------------|
--12----------10------------------|


                                   
-----10---------13------------10--|
-----10---------13------------10--|
----------------12----------------|
-------------x--------------------|
----------------------------------|
--0------10---------10h11h12------|


                                    
------------10------------10/-8----|
------------10------------10/-8----|
-----------------------------------|
-----------------------------------|
-----------------------------------|
--10h11h12------10-11-12-----------|


                                                      
     
--10/--------------------|---------------------------------|
--10/-------x----12------|--x------------------------------|
------------x--------10b-|----x----------------------------|
------------x------------|------x--------------------------|
------------x------------|--------x-10----10--8--9-----10--|
-------------------------|--------------------------0------|


                                                      
---------------------------|-------------------------|
---------------------------|-------------------------|
-------x--x----------------|-------------5-----------|
-------x--x--x--x--10--10/-|-------------4--4h-3-----|
-------x--x--x--x--9---9/--|----5--3--5-----------5--|
--0------------------------|-------------------------|


                                                      

---------------------------|--------------------------|
-------------------12------|--------------------------|
-------x---------------10b-|--7--------------------7--|
-------x--0--x--x----------|----7-------7-------------|
-------x--x--x--x----------|------10-------8h-9-------|
--0-------x--x--x----------|--------------------------|


                                                      
---------------------------|-------------------------|
---------------------------|-------------------------|
-------x--x----------------|-------------5-----------|
-------x--x--x--x--10--10/-|-------------4h-3--------|
-------x--x--x--x--9---9/--|----5--3--0--------5--5--|
--0------------------------|-------------------------|


                                                      
  
---------------------------|----------------------------|
-------------------12------|--7-------------------------|
-------x---------------10b-|----7-----------------x--7--|
-------x--x--x--x----------|------7------7--------x--7--|
-------x--x--x--x----------|---------10-----8h-9--x-----|
--0-------x--x--0----------|----------------------------|


                                                      
--------------------------|--------------------------|
--------------------------|--------------------------|
--x-----x-----x-----5--5--|--------------5--5--------|
--x--0--x--0--x-----4--4h-|--3--0--------4--4h-3--0--|
--x--0--x--0--x--0--------|--------3--0--------------|
-----0-----0-----0--------|--------------------------|


                                                      
 
---------------------------|---------------------------|
-------------------12------|--7------------------------|
-------x---------------10b-|----7-------------------7--|
-------x--x--x--x----------|------7------7-------------|
-------x--x--x--x----------|---------10-----8h-9-------|
--0-------x--x--0----------|---------------------------|


                                                      

--------------------------|--------------------------||
--------------------------|--------------------------||
--x-----x-----x-----5--5--|--------------5--5--------||
--x--0--x--0--x-----4--4h-|--3--0--------4--4h-3--0--||
--x--0--x--0--x--0--------|--------3--0--------------||
-----0-----0-----0--------|--------------------------||



__________________________________
     
Добавлено: 25.08.2013
Вам также может быть интересно:
Другие материалы по этой песне:
  • Аккорды и текст

Страница создана 25.08.2013
http://primanota.ru/tuck-andress/manonash-chords.htm
Привет, Гость.
Предлагаем пройти революционный курс по гитаре.
Подарок от PrimaNota.Ru, забирай!