PrimaNota.ru - самый крупный в мире бесплатный архив песенных текстов, аккордов, табулатур и нот


Tuck And Patti - Time After Time - таба, видео

Регистрация Запомнить меня
Войти через:  Facebook Google Twitter Vk Yandex Mail.ru

Tuck And Patti - Time After Time - таба, видео

Печатать
Просмотров: 71
Авторы: Cyndi Lauper, Rob Hyman

This transcription is made by Paul Magpantay. Email me
at polmagp@yahoo.com for comments or suggestions.
There are a few variations during the chorus and last
parts of the song. I don't have the time to transcribe
those parts. I hope this helps.

                                                      
    
E||---------------------------|---------------------------|
B||--1--------1---------------|--1--------0h1h0-----------|
G||--------0-----0------------|--------0---------0--------|
D||-----3-----------3-----2h3-|-----0---------------0-----|
A||--------------------3------|------------------------2/-|
E||--1------------------------|--3------------------------|


                                                      
--------------------------|--------------------------|
--3-----------3-----------|--1-----------------0-----|
--------0-----------0-----|--------0-----2-----------|
-----4-----4-----4-----4--|-----3-----3-----3-----3--|
--------------------------|--------------------------|
--0-----------------------|--1-----------------------|


                                                      

--3-----------------------|--3------------------------|
--1-----------1-----------|--1--------0h1h0-----------|
--------0-----------0-----|--------0---------0--------|
-----3-----3-----3-----3--|-----0---------------0-----|
--------------------------|------------------------2/-|
--1--------1--1--------1--|--3--------3---3--------3--|


                                                      
--5-----------------------|--3-----3--3--3-----------|
--3-----------3-----------|--1-----1--1--1-----------|
--------0-----------0-----|--------2--0--------------|
-----4-----4-----4-----4--|-----3--------3--2--0-----|
--------------------------|-----------------------3--|
--0--------0--0--------0--|--1--------1--1-----------|


                              2x                      
    
|-----------------------------||-----------------------3--|
|---------1--------1----------||--------1-----------1-----|
|*-----0--------0-----0------*||-----0-----------0--------|
|*--3--------2-----------0h2-*||--3--------2--------------|
|---3--------3----------------||--3--------3--3-----------|
|-----------------------------||--------------------------|


                                                      
     
---------------------------||-----------------------------||
--------1--------1---------||---------1--------1----------||
-----0--------0-----0------||*-----0--------0-----0------*||
--3--------2-----------0h2-||*--3--------2-----------0h2-*||
--3--------3---------------||---3--------3----------------||
---------------------------||-----------------------------||


                                                      
   
--------------------------|------------------------------|
--------1-----------------|--------------------0h1h0-----|
-----0-----------0--------|--------2--------0--------0---|
--3--------2-----2--------|--------------0---------------|
--3-----------3-----------|-----3------------------------|
--------------------0---0-|--1--------3------------------|


                                                      
--------------------------|--------------------------|
--------------------------|--1-----------3-----------|
--0-----0--2-----------0--|--2-----0--------0--2--0--|
-----4--------------3-----|-----3-----3--------------|
-----------------3--------|--------------------------|
--0-----------1-----------|--1-----------3-----------|


                                                      

--------------------------|---------------------------|
--3-----------3-----------|--1------------1-----0-----|
--------0-----------0-----|--------0------------------|
-----4-----4-----4-----4--|-----3-----2-3----0-----0--|
--------------------------|---------------------------|
--0-----------------------|--1------------3-----------|


                                                      
--------------------------|--------------------------|
--------------------------|--1-----------1-----0-----|
--0-----0--2-----------0--|--2-----0-----0-----0-----|
-----4--------------3-----|-----3-----3--------------|
-----------------3--------|--------------------------|
--0-----------1-----------|--1-----------3--3-----3--|


                                                      
     
---------------------------||-----------------------------||
--1-----1--------1---------||---------1--------1----------||
--0--0--------0-----0------||*-----0--------0-----0------*||
--3--------2-----------0h2-||*--3--------2-----------0h2-*||
--3--------3--3------------||---3--------3--3-------------||
---------------------------||-----------------------------||


                                                      

-----------------------3--|---------------------------|
--------1-----------1-----|--------1--------1---------|
-----0-----------0--------|-----0--------0-----0------|
--3--------2--------------|--3--------2-----------0h2-|
--3--------3--3-----------|--3--------3--3------------|
--------------------------|---------------------------|


                                                      
    
|-----------------------------||--------------------------|
|---------1--------1----------||--------1-----------------|
|*-----0--------0-----0------*||-----0-----------0--------|
|*--3--------2-----------0h2-*||--3--------2-----2--------|
|---3--------3--3-------------||--3-----------3-----------|
|-----------------------------||--------------------0---0-|


                                                      
   
------------------------------|--------------------------|
--------------------0-1h0-----|--------------------------|
--------2--------0--------0---|--0-----0--2-----------0--|
--------------0---------------|-----4--------------3-----|
-----3------------------------|-----------------3--------|
--1--------3------------------|--0--------1--1-----------|


                                                      

--------------------------|---------------------------|
--1-----------3-----------|--3-----------3------------|
--2-----0--------0--2--0--|--------0-----------0------|
-----3-----3--------------|-----4-----4-----4-----2-3-|
--------------------------|---------------------------|
--1--------1--3--------3--|--0--------0--0--------0---|


                                                      

---------------------------|--------------------------|
--1------------1-----0-----|--3--------1-----------1--|
--------0------------------|--------0-----------------|
-----3-----2-3----0-----0--|-----2--------------3-----|
---------------------------|-----------------3--------|
--1--------1---3--------3--|--0--------1--1-----------|


                                                      
  
|--------3-----------3-----|-----------3----------------|
|--------0-----------0-----|-----------1----------------|
|*-------0-----------0-----|-----------2-----2--2h0-----|
|*--0----0-----------0-----|--2-----2---------------2---|
|---2----2--------2--------|--0--3--------0-------------|
|---3-------3--3--------3--|--------------------------0-|


                                                    
2x
--------3-----3-----3--3--|-------3-----3-----3------||
--------1-----0-----0--1--|-------1-----1-----1------||
--------2-----0-----0--0--|-------0-----0-----0-----*||
--------3-----0-----0--2--|-------2-----2-----2-----*||
-----3--------2-----2--3--|----3--3--3--3--3--3--3---||
--1--------1--3--3--------|--------------------------||


                                                      

-------3-----------3-----|-----------3----------------|
-------0-----------0-----|-----------1----------------|
-------0-----------0-----|-----------2-----2--2h0-----|
--0----0-----------0-----|--2-----2---------------2---|
--2----2--------2--------|--0--3--------0-------------|
--3-------3--3--------3--|--------------------------0-|


                                                    
--------3-----3-----3--3--|----3-------------------|
--------1-----0-----0--1--|----1----5h-3h-1--------|
--------2-----0-----0--0--|----0-------------------|
--------3-----0-----0--2--|----2----5h-3h-2--------|
-----3--------2-----2--3--|----3-------------3-----|
--1--------1--3--3--------|---------------------0--|


                                                      
 
-----------8h-7------------|-----------3h5h3-----------|
-----------------10--8-----|------------------3--------|
------------------------7--|--------4--4---------4-----|
--------3------------------|-----5------------------5/-|
-----3-----8---------------|---------------------------|
--1------------------------|--3--------3---------------|


                                                      

-----------5h-3-----------|-----0---------------------|
-----------3-----6--5--3--|--------1---------------0--|
--------0-----------------|--------------------0h2----|
-----4--------------------|-----------------3---------|
--------------------------|--------------3------------|
--0-----------0-----------|--1--------1---------------|


                                                      
 
-----------8h-7------------|-----------3h5h3-----------|
--1--------------10--8-----|------------------3--------|
------------------------7--|--------4--4---------4-----|
--------3------------------|-----5------------------5/-|
-----3-----8---------------|---------------------------|
--1------------------------|--3--------3---------------|


                                                      
-----------5h-3-----------|-----0-----------------0--|
-----------3-----6--5--3--|--------1--------1h-3-----|
--------0-----------------|--------------------------|
-----4--------------------|--------------------------|
--------------------------|--------------3-----------|
--0-----------0-----------|--1--------1--------------|


                                                      
     
---------------------------||-----------------------------||
--1-----1--------1---------||---------1--------1----------||
--0--0--------0-----0------||*-----0--------0-----0------*||
--3--------2-----------0h2-||*--3--------2-----------0h2-*||
--3--------3--3------------||---3--------3--3-------------||
---------------------------||-----------------------------||


                                                      

-----------------------3--|---------------------------|
--------1-----------1-----|--------1--------1---------|
-----0-----------0--------|-----0--------0-----0------|
--3--------2--------------|--3--------2-----------0h2-|
--3--------3--3-----------|--3--------3--3------------|
--------------------------|---------------------------|


                                                      
    
|-----------------------------||--------------------------|
|---------1--------1----------||--------1-----------------|
|*-----0--------0-----0------*||-----0-----------0--------|
|*--3--------2-----------0h2-*||--3--------2-----2--------|
|---3--------3--3-------------||--3-----------3-----------|
|-----------------------------||--------------------0---0-|


                                                      
   
------------------------------|--------------------------|
--------------------0h1h0-----|--------------------------|
--------2--------0--------0---|--0-----0--2-----------0--|
--------------0---------------|-----4--------------3-----|
-----3------------------------|-----------------3--------|
--1--------3------------------|--0--------1--1-----------|


                                                      

--------------------------|---------------------------|
--1-----------3-----------|--3-----------3------------|
--2-----0--------0--2--0--|--------0-----------0------|
-----3-----3--------------|-----4-----4-----4-----2-3-|
--------------------------|---------------------------|
--1--------1--3--------3--|--0--------0--0--------0---|


                                                      

---------------------------|--------------------------|
--1------------1-----0-----|--3--------1-----------1--|
--------0------------------|--------0-----------------|
-----3-----2-3----0-----0--|-----2--------------3-----|
---------------------------|-----------------3--------|
--1--------1---3--------3--|--0--------1--1-----------|


                                                      
  
|--------3-----------3-----|-----------3----------------|
|--------0-----------0-----|-----------1----------------|
|*-------0-----------0-----|-----------2-----2--2h0-----|
|*--0----0-----------0-----|--2-----2---------------2---|
|---2----2--------2--------|--0--3--------0-------------|
|---3-------3--3--------3--|--------------------------0-|


                                                    
2x
--------3-----3-----3--3--|-------3-----3-----3------||
--------1-----0-----0--1--|-------1-----1-----1------||
--------2-----0-----0--0--|-------0-----0-----0-----*||
--------3-----0-----0--2--|-------2-----2-----2-----*||
-----3--------2-----2--3--|----3--3--3--3--3--3--3---||
--1--------1--3--3--------|--------------------------||


                                                      

-------3-----------3-----|-----------3----------------|
-------0-----------0-----|-----------1----------------|
-------0-----------0-----|-----------2-----2--2h0-----|
--0----0-----------0-----|--2-----2---------------2---|
--2----2--------2--------|--0--3--------0-------------|
--3-------3--3--------3--|--------------------------0-|


                                                     
--------3-----3-----3--3--|----3--3--3--3--3--3--3--|
--------1-----0-----0--1--|----1--1--1--1--1--1--0--|
--------2-----0-----0--0--|----0--0--0--0--0--0--0--|
--------3-----0-----0--2--|----2--2--2--2--2--2--0--|
-----3--------2-----2--3--|----3--3--3--3--3--3--2--|
--1--------1--3--3--------|----------------------3--|


                                                      

-------3-----------3-----|-----------3----------------|
-------0-----------0-----|-----------1----------------|
-------0-----------0-----|-----------2-----2--2h0-----|
-------0-----------0-----|--2-----2---------------2---|
-------2--------2--------|--0--3--------0-------------|
----3-----3--3--------3--|--------------------------0-|


                                                     
--------3-----3-----3--3--|----3--3--3--3--3--3--3--|
--------1-----1-----0--1--|----1--1--1--1--1--1--0--|
--------2-----0-----0--0--|----0--0--0--0--0--0--0--|
--------3-----0-----0--2--|----2--2--2--2--2--2--0--|
-----3--------2-----2--3--|----3--3--3--3--3--3--2--|
--1--------1--3--3--------|----------------------3--|


                                                    
-------3-----------3--3--|--3--3-------------3-----|
-------0-----------0--0--|--1--0-------------1-----|
-------0-----------0--0--|--2--2--2----------2-----|
-------0-----------0--0--|--------2--2-------2-----|
-------2--------2-----2--|--------0--0----0--------|
----3-----3--3--------3--|----------------------0--|


                                                     
--------3-----3-----3--3--|----3--------------------|
--------1-----1-----0--1--|----1-----5h-3--1--------|
--------2-----0-----0--0--|----0--------------------|
--------3-----0-----0--2--|----2-----5h-3--2--------|
-----3--------2-----2--3--|----3--3-----------3-----|
--1--------1--3--3--------|----------------------0--|


                                                      
   
------------------------------|--------------------------|
--------------------0h1h0-----|--------------------------|
--------2--------0--------0---|--0-----0--2-----------0--|
--------------0---------------|-----4--------------3-----|
-----3------------------------|-----------------3--------|
--1--------3------------------|--0--------1--1-----------|


                                                      

--------------------------|---------------------------|
--1-----------3-----------|--3-----------3------------|
--2-----0--------0--2--0--|--------0-----------0------|
-----3-----3--------------|-----4-----4-----4-----2-3-|
--------------------------|---------------------------|
--1--------1--3--------3--|--0--------0--0--------0---|


                                                      

---------------------------|--------------------------|
--1------------1-----0-----|--3--------1-----------1--|
--------0------------------|--------0-----------------|
-----3-----2-3----0-----0--|-----2--------------3-----|
---------------------------|-----------------3--------|
--1--------1---3--------3--|--0--------1--1-----------|


                                                      
  
|--------3-----------3-----|-----------3----------------|
|--------0-----------0-----|-----------1----------------|
|*-------0-----------0-----|-----------2-----2--2h0-----|
|*--0----0-----------0-----|--2-----2---------------2---|
|---2----2--------2--------|--0--3--------0-------------|
|---3-------3--3--------3--|--------------------------0-|


                                                    
2x
--------3-----3-----3--3--|-------3-----3-----3------||
--------1-----0-----0--1--|-------1-----1-----1------||
--------2-----0-----0--0--|-------0-----0-----0-----*||
--------3-----0-----0--2--|-------2-----2-----2-----*||
-----3--------2-----2--3--|----3--3--3--3--3--3--3---||
--1--------1--3--3--------|--------------------------||


                                                     
-------3-----------3-----|--------3--------3-----3--|
-------0-----------0-----|--------1--------1-----1--|
-------0-----------0-----|-----2--2--------2-----2--|
--0----0-----------0-----|--2--2--------------------|
--2----2--------2--------|--0--------2--2-----3-----|
--3-------3--3--------3--|--------------------------|


                                                     
--------3-----3-----3--3--|-------3-----3-----3-----|
--------1-----0-----0--1--|-------1-----1-----1-----|
--------2-----0-----0--0--|-------0-----0-----0-----|
--------3-----0-----0--2--|-------2-----2-----2-----|
-----3--------2-----2--3--|----3--3--3--3--3--3--3--|
--1--------1--3--3--------|-------------------------|


                                                      
 
|---------------------------|--------------------------|
|---------1-----1-----0--1--|--------1-----------1-----|
|*--------2-----0-----0--0--|--------0-----------0-----|
|*--------3-----0-----0--2--|-----2-----------2--------|
|------3-----------------3--|--3--------3--0--------0--|
|---1--------1--3--3--------|--------------------------|


                                                     
3x
--------0-----0--------0--|--------0-----------0------||
--------1-----1-----3--1--|--------1-----------1------||
--------2-----0-----0--0--|--------0-----------0-----*||
--------------------0-----|-----2-----------2--------*||
-----3-----------------3--|--3--------3--0--------0---||
--1--------1--3--3--------|---------------------------||



     
Добавлено: 19.09.2013
Другие материалы по этой песне:
  • Аккорды и текст

Страница создана 19.09.2013
http://primanota.ru/tuck-and-patti/time-after-time-chords.htm
Привет, Гость.
Предлагаем пройти революционный курс по гитаре.
Подарок от PrimaNota.Ru, забирай!