PrimaNota.ru - самый крупный в мире бесплатный архив песенных текстов, аккордов, табулатур и нот


Tubeway Army - Down In The Park - текст песни, бас-таба, видео

Регистрация Запомнить меня
Войти через:  Facebook Google Twitter Vk Yandex Mail.ru

Tubeway Army - Down In The Park - текст песни, бас-таба, видео

Печатать
Просмотров: 125
Уроки эстрадного вокала в Санкт-Петербурге
Авторы музыки: Gary Numan
Авторы текста: Gary Numan
Tabbed by: bassm99
E-mail: alanmatthews1966@yahoo.co.uk

Tuning: E, A, D, G

"Down In The Park" from the album "Replicas" (1979)
Written by Gary Numan

Intro: (Play Twice) 
 
G|--------------------------------------------------------------------------|
D|--------------------------------------------------------------------------|
A|--3----5--------------3----5----------------------------------------------|
E|------------6----1--------------5-----------------------------------------|

Verse: (Play Twice)

G|--------------------------------------------------------------------------|
D|--------------------------------------------------------------------------|
A|--3----5--------------3----5----------------------------------------------|
E|------------6----1--------------5-----------------------------------------|

Bridge:

G|--------------------------------------------------------------------------|
D|--------------------------------------------------------------------------|
A|--------------------------------------------------------------------------|
E|--6---4-6----4---2-2-4----1----1----1----1--------------------------------|

Repeat Verse:

Bridge:

G|--------------------------------------------------------------------------|
D|--------------------------------------------------------------------------|
A|--------------------------------------------------------------------------|
E|--6---6-8-6----6-8-4---2-2-4----1----1----1----1--------------------------|

Repeat Intro:

Repeat Verse:

Bridge:

G|--------------------------------------------------------------------------|
D|--------------------------------------------------------------------------|
A|--------------------------------------------------------------------------|
E|--6---4-6---4-4-6---4-6---8-8-4---2-4---2-2-4---2-4----1----1----1----1---|

End: (Play Once)

G|--------------------------------------------------------------------------|
D|--------------------------------------------------------------------------|
A|--3----5--------------3----5----------------------------------------------|
E|------------6----1--------------5-----------------------------------------|
Добавлено: 14.09.2015
Другие материалы по этой песне:
  • Аккорды и текст

Страница создана 08.07.2012
http://primanota.ru/tubeway-army/down-in-the-park-chords.htm
Привет, Гость.
Предлагаем пройти революционный курс по гитаре.
Подарок от PrimaNota.Ru, забирай!