PrimaNota.ru - самый крупный в мире бесплатный архив песенных текстов, аккордов, табулатур и нот


Tubeway Army - Do You Need The Service - бас-таба, видео

Регистрация Запомнить меня
Войти через:  Facebook Google Twitter Vk Yandex Mail.ru

Tubeway Army - Do You Need The Service - бас-таба, видео

Печатать
Просмотров: 151
Уроки эстрадного вокала в Санкт-Петербурге
Авторы музыки: Gary Numan

Tabbed by: bassm99
E-mail: alanmatthews1966@yahoo.co.uk

Tuning: E, A, D, G

"Do You Need The Service?" from the single "Down In The Park" (1979)
Written by Gary Numan

Bass Starts: 0:14

Intro: (Play 4 Times)
 
G|------9---9--9------------------------------------------------------------|
D|--------------------------------------------------------------------------|
A|--7-7---7--7--------------------------------------------------------------|
E|--------------------------------------------------------------------------|

Verse: (Play Twice)

G|------9---9--9------7---7--7----------------------------------------------|
D|----------------------------------7---7--7------7---7--7------------------|
A|--7-7---7--7----5-5---5--5------------------------------------------------|
E|------------------------------5-5---5--5----5-5---5--5--------------------|

Instrumental: (Play Twice)

G|--------------------------------------------------------------------------|
D|------5---5--5------------------------------------------------------------|
A|--------------------------------------------------------------------------|
E|--3-3---3--3---(x3)--3----------------------------------------------------|

Repeat Intro:

Repeat Verse:

Repeat Instrumental:

Bridge:

G|--------------------------------------------------------------------------|
D|--------------------------------------------------------------------------|
A|------10--------5----------7------------7---7--------7-----7---7----------|
E|--8-8----8---3-3---3---5-5---5-(x4)---5---5------5-5---5-5---5------------|

Repeat Intro:

Repeat Verse:

Repeat Instrumental:

Repeat Intro:

Repeat Verse:

Repeat Instrumental:

Repeat Bridge:

Repeat Intro:

End:

G|------9-------------------------------------------------------------------|
D|--------------------------------------------------------------------------|
A|--7-7---------------------------------------------------------------------|
E|--------------------------------------------------------------------------|
Добавлено: 14.09.2015
Другие материалы по этой песне:
  • Аккорды и текст

Страница создана 14.09.2015
http://primanota.ru/tubeway-army/do-you-need-service-chords.htm
Привет, Гость.
Предлагаем пройти революционный курс по гитаре.
Подарок от PrimaNota.Ru, забирай!