PrimaNota.ru - самый крупный в мире бесплатный архив песенных текстов, аккордов, табулатур и нот


Tubelord - Your Bed Is Kind Of Frightening - таба, видео

Регистрация Запомнить меня
Войти через:  Facebook Google Twitter Vk Yandex Mail.ru

Tubelord - Your Bed Is Kind Of Frightening - таба, видео

Печатать
Просмотров: 80
-------------------------------------------------------------------------------
		Your Bed Is Kind Of Frightening - Tubelord
-------------------------------------------------------------------------------
 
 Tabbed by:dvanwyk
 Email:dustinvanwyk@yahoo.com

 (*NB:Listen for strumming patterns)

 (0.00 - 0.54)
e|55555555-55555555--------|
B|77777777-77777777--------|
G|44444444-66666666--------|
D|-------------------------|
A|-------------------------|
D|-------------------------|

 x1
e|---------------------------------------------|
B|7777777777777777-----------------------------|
G|4444444444444444-6-666-6-666-6-666-6-666-6---|
D|5555555555555555-x-xxx-x-xxx-x-xxx-x-xxx-x---|
A|-----------------4-444-4-444-4-444-4-444-4---|
D|-----------------0-000-0-000-0-000-0-000-0---|

e|--------------------------------------------|
B|7p5----7p5----7p5-----7p5----7p5----7p5-----|
G|----66-----66-----66------66-----66-----66--|
D|7-7-77-7-7-77-7-7-77--5-5-55-5-5-55-5-5-55--|
A|--------------------------------------------|
D|--------------------------------------------|

e|12-12-12-12-1212-12-12-12-12-1212----|
B|10-10-10-10-1010-10-10-10-10-1010----|
G|x--x--x--x--x-x--x--x--x--x--x-x-----|
D|9--9--9--9--9-9--12-12-12-12-1212----|
A|-------------------------------------|
D|-------------------------------------|

 x2
e|12-12-12-12-12-12-12-12-12-12-12-12-12-12-12-12--|
B|x--x--x--x--x--x--x--x--x--x--x--x--x--x--x--x---|
G|x--x--x--x--x--x--x--x--x--x--x--x--x--x--x--x---|
D|11-11-11-11-11-11-11-11-11-11-11-11-11-11-11-11--|
A|12-12-12-12-12-12-12-12-10-10-10-10-10-10-10-10--|
D|-------------------------------------------------|

e|12-12-12-12-12-12-12-12-12-12-12-12-12-12-12-12--|
B|x--x--x--x--x--x--x--x--10-10-10-10-10-10-10-10--|
G|x--x--x--x--x--x--x--x--x--x--x--x--x--x--x--x---|
D|11-11-11-11-11-11-11-11-9--9--9--9--12-12-12-12--|
A|9--9--9--9--9--9--9--9---------------------------|
D|-------------------------------------------------|

e|--------------------------------------------|
B|7p5----7p5----7p5-----7p5----7p5----7p5-----|
G|----66-----66-----66------66-----66-----66--|
D|7-7-77-7-7-77-7-7-77--5-5-55-5-5-55-5-5-55--|
A|--------------------------------------------|
D|--------------------------------------------|

e|12-12-12-12-1212-12-12-12-12-1212----|
B|10-10-10-10-1010-10-10-10-10-1010----|
G|x--x--x--x--x-x--x--x--x--x--x-x-----|
D|9--9--9--9--9-9--12-12-12-12-1212----|
A|-------------------------------------|
D|-------------------------------------|

 (1.46 - 2.05)
e|-------------------------------|
B|14-------14-------1414---------|
G|---14-------14---------14------|
D|------16-------16---------16---|
A|-------------------------------|
D|-------------------------------|

e|12-1212-12-1212-9--9-9--9--9--9--12-1212-9--9-9---------------|
B|x--x-x--x--x-x--10-1010-10-10-10-x--x-x--10-1010-10-1010-10---|
G|11-1111-11-1111------------------11-1111---------x--x-x--x----|
D|-------------------------------------------------9--9-9--9----|
A|--------------------------------------------------------------|
D|--------------------------------------------------------------|

 x4
e|---12-10-9-------12-10-9----------|
B|10---------10------------10-------|
G|--------------11------------11----|
D|----------------------------------|
A|----------------------------------|
D|----------------------------------|

e|12-1212-12-1212-------|
B|10-1010-10-1010-------|
G|----------------------|
D|9--9-9--9--9-9--------|
A|----------------0~----|
D|----------------0~----|

 x2
e|----------------------|
B|----------------------|
G|----------------------|
D|----------------------|
A|------------------5~--|
D|7~----9~----4~--------|

e|-------------------------------------------------------------|
B|-------------------------------------------------------------|
G|--------------------------4-4--------------------------------|
D|11111111----77-9-77-9-----5-5----11111111----77-9-77-9-5-5---|
A|x-x-x-x--xx-99-9-99-9-xx--x-x----x-x-x-x--xx-99-9-99-9-5-5---|
D|7-7-7-7--xx-----------xx--5-5----7-7-7-7--xx-----------5-5---|

e|------------------------------|
B|------------------------------|
G|----------------4444444444----|
D|5-5-5-5-5-5-5-5-5555555555----|
A|----------------xxxxxxxxxx----|
D|----------------5555555555----|

 x2
e|---------------------------|
B|---------------------------|
G|6~----9~-----4~----11~-----|
D|7~----11~----5~----12~-----|
A|x-----x------x-----x-------|
D|7~----11~----5~----12~-----|

 x2
e|-------------------------------------------------------|
B|-------------------------------------------------------|
G|66666666-1010101010101010-44444444-1111111111111111----|
D|77777777-1111111111111111-55555555-1212121212121212----|
A|xxxxxxxx-xxxxxxxxxxxxxxxx-xxxxxxxx-xxxxxxxxxxxxxxxx----|
D|77777777-1111111111111111-55555555-1212121212121212----|

e|-------------------------------------------------------------------------|
B|----------------------------------------------------------------------10-|
G|--------9---------9-------------9-----7-7-7---------9---------9/11-13----|
D|-----11--------11------------11-------9-9-9------11--------11------------|
A|--12--------12------------12----------x-x-x---12--------12---------------|
D|7---------7---------7/--7---------7/--9-9-9-7---------9------------------|

e|----|
B|----|
G|6---|
D|7---|
A|x---|
D|7---|
Добавлено: 10.09.2013
Другие материалы по этой песне:
  • Аккорды и текст

Страница создана 10.09.2013
http://primanota.ru/tubelord/your-bed-is-kind-of-frightening-chords.htm
Привет, Гость.
Предлагаем пройти революционный курс по гитаре.
Подарок от PrimaNota.Ru, забирай!