PrimaNota.ru - самый крупный в мире бесплатный архив песенных текстов, аккордов, табулатур и нот


Tubelord - Ultra-machine - таба, видео

Регистрация Запомнить меня
Войти через:  Facebook Google Twitter Vk Yandex Mail.ru

Tubelord - Ultra-machine - таба, видео

Печатать
Просмотров: 77
-------------------------------------------------------------------------------
		  Ultra-Machine - Tubelord
-------------------------------------------------------------------------------


 Intro x4
e|--------------------------------------------------------|
B|--1p0-----1-0------1p0-----1-0--------------------------|
G|------2-------0--------2-------0---9--9--9--9--9-9-9----|
D|2-------2--------2-------2---------10-10-10-10-101010---|
A|--------------------------------------------------------|
D|--------------------------------------------------------|

 x4
e|-----------12----17------12----17-----12----12----12----12----12--|
B|-----15----------------------------15----15----15----15----15-----|
G|1414----14----14----1414----14------------------------------------|
D|------------------------------------------------------------------|
A|------------------------------------------------------------------|
D|------------------------------------------------------------------|

e|------------------------------------------|
B|------------------------------------------|
G|12121212-9999-----------------------------|
D|12121212-9999-9-9-9-9-9-9--11111111111----|
A|x-x-x-x--xxxx-101010101010-121212121212---|
D|10101010-7777-----------------------------|

e|-----------------------------------|
B|-----------------------------------|
G|------------------4-6-4-6-4-6-46---|
D|7-9-7-9-7-9-7-79--5-5-5-5-5-5-55---|
A|-----------------------------------|
D|7-7-7-7-7-7-7-77-------------------|

e|------------------------|
B|8-8-8-8-8-8-8-8-8-8-----|
G|7-7-7-7-7-7-7-7-7-7-----|
D|x-x-x-x-x-x-x-x-x-x-----|
A|x-x-x-x-x-x-x-x-x-x-----|
D|8-8-8-8-8-8-8-8-8-8-----|

e|----------------------|
B|12~-----121212~-------|
G|x-------x-x-x---------|
D|9~------9-9-9~--------|
A|----------------------|
D|----------------------|

 x4
e|-------------------------------------------------------|
B|-------10p0-12p0----------10p0-12p0------8---8---8-----|
G|---9p0-----------9----9p0-----------9------------------|
D|---------------------------------------5---5---5-------|
A|12-----------------10----------------------------------|
D|-------------------------------------------------------|

 x1
e|---------------------------------------------------|
B|-------10p0-12p0---------------------12--8-8-8-----|
G|---9p0-----------9----9p0-9h11-11h12-----x-x-x-----|
D|-----------------------------------------5-5-5-----|
A|12-----------------10------------------------------|
D|---------------------------------------------------|

 

e|----------------------------5---------------------|
B|--3p0---3p0---3p0-3/5---3-5------3p0-3/5----------|
G|----------------------4------------------4--4~----|
D|--------------------------------------------5~----|
A|3-----3-----3------------------3------------x-----|
D|--------------------------------------------5~----|

e|----------------------------5----------------------|
B|--3p0---3p0---3p0-3/5---3-5------3p0-3/5-----------|
G|----------------------4------------------4--4-3-2--|
D|--------------------------------------------5-4-3--|
A|3-----3-----3------------------3------------x-x-x--|
D|--------------------------------------------5-4-3--|

 
e|----------------------------5---------------------|
B|--3p0---3p0---3p0-3/5---3-5------3p0-3/5----------|
G|----------------------4------------------4--4~----|
D|--------------------------------------------5~----|
A|3-----3-----3------------------3------------x-----|
D|--------------------------------------------5~----|

 
e|----------------------------5---------------|
B|--3p0---3p0---3p0-3/5---3-5------3p0-3/5----|
G|----------------------4------------------4--|
D|--------------------------------------------|
A|3-----3-----3------------------3------------|
D|--------------------------------------------|


e|------------------------------------------------------------------|
B|------------------------------------------------------------------|
G|77777766666666-11111111111111111111111111111111-999999999999999---|
D|99999999999999-12121212121212121212121212121212-111111111111111---|
A|------------------------------------------------------------------|
D|------------------------------------------------------------------|

e|----------------------------------1010-101010-1010---|
B|1313-131313-1313-1212-121212-1212-x-x--x-x-x--x-x----|
G|1414-141414-1414-1414-141414-1414-x-x--x-x-x--x-x----|
D|1212-121212-1212-1212-121212-1212-x-x--x-x-x--x-x----|
A|----------------------------------9-9--9-9-9--9-9----|
D|-----------------------------------------------------|

e|------------------------------------10---10---10---10--|
B|1313-131313-1313-1212-121212-1212----------------------|
G|1414-141414-1414-1414-141414-1414----------------------|
D|1212-121212-1212-1212-121212-1212----------------------|
A|----------------------------------9----9----9----9-----|
D|-------------------------------------------------------|

 x2
e|------------------------------------12-1010101010101010101010-----|
B|1313131313131313-1212121212121212------x-x-x-x-x-x-x-x-x-x-x------|
G|1414141414141414-1414141414141414------x-x-x-x-x-x-x-x-x-x-x------|
D|1212121212121212-1212121212121212------x-x-x-x-x-x-x-x-x-x-x------|
A|----------------------------------9----9-9-9-9-9-9-9-9-9-9-9------|
D|------------------------------------------------------------------|

 x4
e|---------------------------------------------------------|
B|---------------------------------------------------------|
G|77777777-66666666-1111111111111111-999999999999999999----|
D|99999999-99999999-1212121212121212-111111111111111111----|
A|xxxxxxxx-xxxxxxxx-x-x-x-x-x-x-x-x--x-x-x-x-x-x-x-x-x-----|
D|99999999-99999999-1212121212121212-111111111111111111----|

e|---------------------|
B|12--12--12--12~------|
G|x---x---x---x--------|
D|9---9---9---9~-------|
A|---------------------|
D|---------------------|
Добавлено: 26.10.2013
Вам также может быть интересно:
Другие материалы по этой песне:
  • Аккорды и текст

Страница создана 26.10.2013
http://primanota.ru/tubelord/ultra-machine-chords.htm
Привет, Гость.
Предлагаем пройти революционный курс по гитаре.
Подарок от PrimaNota.Ru, забирай!