PrimaNota.ru - самый крупный в мире бесплатный архив песенных текстов, аккордов, табулатур и нот


Tubelord - Synthesize - таба, бас-таба, видео

Регистрация Запомнить меня
Войти через:  Facebook Google Twitter Vk Yandex Mail.ru

Tubelord - Synthesize - таба, бас-таба, видео

Печатать
Просмотров: 91
-------------------------------------------------------------------------------
			     Synthesize - Tubelord
-------------------------------------------------------------------------------
 Tabbed by:dvanwyk
 Email:dustinvanwyk@yahoo.com

 Tuning:Drop D

 x2
e|------------------------------|
B|----7-7-77-7------------------|
G|6-6-7-7-77-7-9-9/-7-7-77-7----|
D|x-x-x-x-xx-x-x-x--x-x-xx-x----|
A|4-4-5-5-55-5-7-7/-5-5-55-5----|
D|------------------------------|
 
 x2
e|-------------------------------------------------------|
B|----5-----5-----5h7p5-------5h7p5----------------------|
G|--7-----7-----7-------7---7-------7--------------------|
D|5-----5-----7-----------7-----------7------------------|
A|--------------------------------------7-7-7-75-5-5-5---|
D|-------------------------------------------------------|

e|--------------------------|
B|777~--555~---777~---------|
G|777~--777~---777~--777~---|
D|555~--777~---555~--777~---|
A|-------------------555~---|
D|--------------------------|

 x2
e|----------------------------|
B|----3---7---10---12---------|
G|7---x---x---x-----x---------|
D|x---x---x---x-----x---------|
A|x---x---5---x-----x---------|
D|5---2-------9----10---------|
 
 x4
e|---------------------------------------|
B|--------10p7---------------------------|
G|------7------1111--------4-6p4-7-7-----|
D|5h7h9--------x-x---5h7h9-------x-x-----|
A|-------------9-9---------------5-5-----|
D|---------------------------------------|

e|-----------------------------------------------7------0-------0-----|
B|-------------------------------------------5h7------3---3---3---3---|
G|----------7-----------7-----------7----7----------------------------|
D|------7/9---------7/9---------7/9----7---9--------------------------|
A|--9/7---------9/7---------9/7---------------------2-------0---------|
D|5-----------5-----------5-------------------------------------------|

 x2
e|----------------------------|
B|----3---7---10---12---------|
G|7---x---x---x-----x---------|
D|x---x---x---x-----x---------|
A|x---x---5---x-----x---------|
D|5---2-------9----10---------|

 x2
e|-----------------------------------------------7------0-------0-----|
B|-------------------------------------------5h7------3---3---3---3---|
G|----------7-----------7-----------7----7----------------------------|
D|------7/9---------7/9---------7/9----7---9--------------------------|
A|--9/7---------9/7---------9/7---------------------2-------0---------|
D|5-----------5-----------5-------------------------------------------|


e|--------|
B|777-----|
G|777-----|
D|--------|
A|--------|
D|--------|
 
 (2.14)
e|----------------------------------|
B|----------------------------------|
G|----------------------------------|
D|5-5-5-5---------------------------|
A|--------7-7-5-5-2-2-2-2-5-5-5-----|
D|----------------------------------|
  . . . . . . . . . . . . . . .

e|----------------------------------|
B|8888-------3333-------------------|
G|7777-77-77-5555-111111-6-6-6------|
D|5555-77-77-xxxx-x-x-x--x-x-x------|
A|-----77-55-2222-9-9-9--4-4-4------|
D|----------------------------------|
Добавлено: 09.06.2013
Другие материалы по этой песне:
  • Аккорды и текст

Страница создана 09.06.2013
http://primanota.ru/tubelord/synthesize-chords.htm
Привет, Гость.
Предлагаем пройти революционный курс по гитаре.
Подарок от PrimaNota.Ru, забирай!