PrimaNota.ru - самый крупный в мире бесплатный архив песенных текстов, аккордов, табулатур и нот


Tubelord - Staceys Left Arm - таба, видео

Регистрация Запомнить меня
Войти через:  Facebook Google Twitter Vk Yandex Mail.ru

Tubelord - Staceys Left Arm - таба, видео

Печатать
Просмотров: 66
-------------------------------------------------------------------------------
		   Stacey's Left Arm - Tubelord
-------------------------------------------------------------------------------

 Guitar 1

 x6
e|---------------------------|
B|---------------------------|
G|--7-----7-----2-----4------|
D|----9-----9-----0-----0----|
A|---------------------------|
D|9-----9-----2-----5--------|

 x4
e|-----0~---5~---|
B|-----0~---x----|
G|7~---2~---4~---|
D|9~---x----x----|
A|x----x----x----|
D|9~---2~---5~---|

 x4
e|--------------------------------------|
B|--------------------------------------|
G|--7---7---7---7----2---2-----4---4----|
D|--9---9---9---9----0---0-----0---0----|
A|--------------------------------------|
D|9---9---9---9----2---2-----5---5------|

 x4
e|----------------------------|
B|0000------------------------|
G|77777777-22222222-44444444--|
D|99999999-xxxxxxxx-xxxxxxxx--|
A|xxxxxxxx-xxxxxxxx-xxxxxxxx--|
D|99999999-22222222-55555555--|

 x2
e|-------------------------------------|
B|----10----7~-------------------------|
G|--7----7--7~---9----9----9----9------|
D|0---------x------12---12---12---12---|
A|----------x--------------------------|
D|----------5~-------------------------|

e|---------------------------------------------------------------------|
B|---------------------------------------------------------------------|
G|----------------------------------1414141414141414-1616161616161616--|
D|12---12---12-12---14---14---14-14------------------------------------|
A|x----x----x--x----x----x----x--x-------------------------------------|
D|7----7----7--7----12---12---12-12------------------------------------|

 x1
e|----------------|
B|----------------|
G|77-6/77-11------|
D|99-7/99-12-77---|
A|-----------77---|
D|----------------|

 x2
e|------------------------------|
B|------------------------------|
G|77-6/77-11-----66-4/-66-7-4---|
D|99-7/99-12-77--77-5/-77-9-5---|
A|-----------77-----------------|
D|------------------------------|

e|-------------------------1010101010101010---|
B|-------------------------x-x-x-x-x-x-x-x----|
G|77-6/77-11-----66-4/-66--9-9-9-9-9-9-9-9----|
D|99-7/99-12-77--77-5/-77--x-x-x-x-x-x-x-x----|
A|-----------77------------x-x-x-x-x-x-x-x----|
D|-------------------------1010101010101010---|

 x2
e|-------------------------------------|
B|10-10-10-10--7-7---------------7-7---|
G|x--x--x--x---7-7--9--9--9--9---7-7---|
D|12-12-12-12--5-5--12-12-12-12--5-5---|
A|-------------------------------------|
D|-------------------------------------|

e|-----------------------------------------|
B|------10---------------------------------|
G|----9----9-----7~---9----9----9----9-----|
D|12-----------5~-------12---12---12---12--|
A|-----------------------------------------|
D|-----------------------------------------|

e|-------------------------5555---|
B|-----10------------------xxxx---|
G|---9----9----7-999999999-4444---|
D|12---------5---777777777-xxxx---|
A|---------------xxxxxxxxx-5555---|
D|---------------777777777--------|
 
 x2
e|--------------------------5555---|
B|10-10-10-10--7-7----------xxxx---|
G|9--9--9--9---7-7-99999999-4444---|
D|12-12-12-12--5-5-77777777-xxxx---|
A|-----------------xxxxxxxx-5555---|
D|-----------------77777777--------|

e|---------------------------|
B|---------------------------|
G|4-4-4-4-44--4--4--66-7-----|
D|x-x-x-x-xx--x--x--77-9-----|
A|x-x-x-x-xx--x--x--xx-x-----|
D|5-5-5-5-55--5--5--77-9-----|

e|--------------------12-1212-------------|
B|--------------------10-1010-------------|
G|44444444-6666-7-7-7-9--9-9--4--4--66----|
D|55555555-7777-9-9-9-x--x-x--5--5--77----|
A|xxxxxxxx-xxxx-x-x-x-7--7-7--x--x--xx----|
D|55555555-7777-9-9-9---------5--5--77----|

 x2
e|---------121212121212----------------------|
B|---------101010101010----------------------|
G|77777777-9-9-9-9-9-9--44444444-66666666----|
D|99999999--------------55555555-77777777----|
A|xxxxxxxx--------------xxxxxxxx-xxxxxxxx----|
D|99999999--------------55555555-77777777----|

e|-----------------------------|
B|-----------------------------|
G|7---7-7--44444444-666666-----|
D|9---x-x--55555555-777777-----|
A|x---5-5--xxxxxxxx-xxxxxx-----|
D|9--------55555555-777777-----|


 x2
e|---------121212121212----------------------|
B|---------101010101010----------------------|
G|77777777-9-9-9-9-9-9--44444444-66666666----|
D|99999999--------------55555555-77777777----|
A|xxxxxxxx--------------xxxxxxxx-xxxxxxxx----|
D|99999999--------------55555555-77777777----|

e|------------------------------------------------------------------------------|
B|------------------------------------------------------------------------------|
G|----7-------7---------9----------9---------11----------11--------4-------6----|
D|--9---9---9---9----11---11----11---11---12----12----12----12---5---5---7---7--|
A|------------------------------------------------------------------------------|
D|9-------9-------11---------11---------12---------12----------5-------7--------|

e|------------------------------|
B|------------------------------|
G|----7-------7---------9-------|
D|--9---9---9---9----11---11----|
A|------------------------------|
D|9-------9-------11------------|

e|---------------------------|
B|---------------------------|
G|11-11-11-11-4---6---7777---|
D|12-12-12-12-5---7---9999---|
A|x--x--x--x--x---x---xxxx---|
D|12-12-12-12-5---7---9999---|

e|-----------------|
B|-----------------|
G|----4-------6----|
D|--5---5---7---7--|
A|-----------------|
D|5-------7--------|

===============================================================================

 Guitar 2
 
 (0.40 - 0.54)
e|1212-14-15~-15p14----1212-14-15~-15p14----1212-14-15~-15p14----1212-14-15~-17h19p17--|
B|------------------15-------------------15--------------------15----------------------|
G|-------------------------------------------------------------------------------------|
D|-------------------------------------------------------------------------------------|
A|-------------------------------------------------------------------------------------|
D|-------------------------------------------------------------------------------------|

 (2.20)
e|-----------------------------------|
B|-----------------------------------|
G|-----------------------------------|
D|0---555-7---555-0---555-7---555----|
A|0---555-7---555-0---555-7---555----|
D|0---555-7---555-0---555-7---555----|

Добавлено: 26.11.2013
Другие материалы по этой песне:
  • Аккорды и текст

Страница создана 26.11.2013
http://primanota.ru/tubelord/staceys-left-arm-chords.htm
Привет, Гость.
Предлагаем пройти революционный курс по гитаре.
Подарок от PrimaNota.Ru, забирай!