PrimaNota.ru - самый крупный в мире бесплатный архив песенных текстов, аккордов, табулатур и нот


Tubelord - Somewhere Out There A Dog Is On Fire - таба, видео

Регистрация Запомнить меня
Войти через:  Facebook Google Twitter Vk Yandex Mail.ru

Tubelord - Somewhere Out There A Dog Is On Fire - таба, видео

Печатать
Просмотров: 58
-------------------------------------------------------------------------------
		 Somewhere Out There A Dog Is On Fire - Tubelord
-------------------------------------------------------------------------------


 Tabbed by:dvanwyk
 Email:dustinvanwyk@yahoo.com  


 Intro
e|------0---------2------------------|
B|----4---4-4/2/4---4----------------|
G|0h4--------------------------------|
D|-----------------------------------|
A|---------------------2-2-2-2-2-2---|
D|---------------------2-2-2-2-2-2---|

e|------------------------------------------|
B|-4~------------2~------------0~------2~---|
G|------------------------------------------|
D|------------------------------------------|
A|------------------------------------------|
D|------------------------------------------|

 
 Verse x4
e|------0---------2---|
B|----4---4-4p2h4-----|
G|0h4-----------------|
D|--------------------|
A|--------------------|
D|--------------------|

 x1
e|------0---2-2-2-----|
B|----4---4-4-4-4-----|
G|0h4-----------------|
D|--------------------|
A|--------------------|
D|--------------------|

 x2
e|------0---------2---|
B|----4---4-4p2h4-----|
G|0h4-----------------|
D|--------------------|
A|--------------------|
D|--------------------|

 x1
e|------0------------|
B|----4---4-4p2h4----|
G|0h4-------------4--|
D|-------------------|
A|-------------------|
D|-------------------|


e|----0--2~-----0----2~----|
B|--4----4~-------4--4~----|
G|4------4~---4------4~----|
D|-------------------------|
A|-------------------------|
D|-------------------------|

e|---12-------12-------12-------12-19-----|
B|------16-------16-------16--------------|
G|----------------------------------------|
D|16-------16-------16-------16-----------|
A|----------------------------------------|
D|----------------------------------------|

e|---12-------12-------12-------12--------|
B|------16-------16-------16-------19-----|
G|----------------------------------------|
D|16-------16-------16-------16-----------|
A|----------------------------------------|
D|----------------------------------------|

e|---12-------12-------12-------12-19-----|
B|------16-------16-------16--------------|
G|----------------------------------------|
D|16-------16-------16-------16-----------|
A|----------------------------------------|
D|----------------------------------------|

e|--------------14~--|-------|
B|---14-16~--17------|-------|
G|16-----------------|-------|
D|-------------------|13~----|
A|-------------------|14~----|
D|-------------------|-------|

 x2
e|--------------|-----------------------------|
B|7-57-57-5-----|-----------------------------|
G|x-xx-xx-x-----|444444444444-66666666666-----|
D|x-xx-xx-x-----|555555555555-777777777777----|
A|5-55-55-5-----|xxxxxxxxxxxx-xxxxxxxxxxxx----|
D|--------------|555555555555-777777777777----|

 x4                      x2
e|----------------------|------------------------|
B|--------7----9-7------|--------7------7-9------|
G|--6---8----------8----|--6---8------8------8---|
D|9---9------9----------|9---9-------9-----------|
A|----------------------|------------------------|
D|----------------------|------------------------|

e|---------------------|
B|---------------------|
G|66666666-44444444----|
D|77777777-22222222----|
A|xxxxxxxx-xxxxxxxx----|
D|77777777-22222222----|

 Pause

e|---------------------|
B|---------------------|
G|44444444-99999999----|
D|22222222-99999999----|
A|xxxxxxxx-xxxxxxxx----|
D|22222222-77777777----|

 x2
e|--------------|
B|--------------|
G|--------------|
D|--------------|
A|2---2p0-------|
D|--3-----3p0---|

e|---------------------|
B|---------------------|
G|44444444-99999999----|
D|22222222-99999999----|
A|xxxxxxxx-xxxxxxxx----|
D|22222222-77777777----|

e|----------------------------|
B|12121212121212121212121212--|
G|----------------------------|
D|----------------------------|
A|----------------------------|
D|----------------------------|

e|---------------------|
B|---------------------|
G|44444444-99999999----|
D|22222222-99999999----|
A|xxxxxxxx-xxxxxxxx----|
D|22222222-77777777----|

e|------|
B|------|
G|13b---|
D|17b---|
A|------|
D|------|

 (1.57 - 2.09)
e|-----------------------|
B|-----------------------|
G|----2-----------2------|
D|--4---4-2p0---4---4----|
A|2-----------2----------|
D|-----------------------|

e|----------------------------|
B|--------------7-77---3-33---|
G|7-77-7-4-44-4-7-77---4-44---|
D|9-99-9-5-55-5-x-xx---x-xx---|
A|x-xx-x-x-xx-x-5-55-0-x-xx---|
D|9-99-9-5-55-5------0-2-22---|

 (2.22 - 2.38)
e|--7------7----7------7-----|
B|----10----------10---------|
G|---------------------------|
D|9------9----9------9-------|
A|---------------------------|
D|---------------------------|

e|----------------------|
B|---7---77-7b--3-33----|
G|---7---77-7b--4-44----|(*NB:Listen for the strumming pattern)
D|---x---xx-----x-xx----|
A|0--5-0-55---0-x-xx----|
D|0----0------0-2-22----|

 x4
e|-----------------------------------------------------|
B|--------------------------555555555555---------------|
G|777777777777-222222222222-xxxxxxxxxxxx-444444444444--|
D|999999999999-444444444444-777777777777-555555555555--|
A|xxxxxxxxxxxx-xxxxxxxxxxxx-555555555555-xxxxxxxxxxxx--|
D|999999999999-444444444444-000000000000-555555555555--|

e|---|
B|---|
G|7--|
D|9--|
A|x--|
D|9--|

Добавлено: 27.08.2013
Другие материалы по этой песне:
  • Аккорды и текст

Страница создана 27.08.2013
http://primanota.ru/tubelord/somewhere-out-there-a-dog-is-on-fire-chords.htm
Привет, Гость.
Предлагаем пройти революционный курс по гитаре.
Подарок от PrimaNota.Ru, забирай!