PrimaNota.ru - самый крупный в мире бесплатный архив песенных текстов, аккордов, табулатур и нот


Tubelord - Propeller - таба, бас-таба, видео

Регистрация Запомнить меня
Войти через:  Facebook Google Twitter Vk Yandex Mail.ru

Tubelord - Propeller - таба, бас-таба, видео

Печатать
Просмотров: 86
-------------------------------------------------------------------------------
			     Propeller - Tubelord
-------------------------------------------------------------------------------


 Intro (0.26)
 x3
e|---------------------------|
B|---------------------------|
G|1111-9-9--1111---1111-9----|
D|1212-1212-1212---1111-11---|
A|---------------------------|
D|---------------------------|

e|-----------------------------|
B|-----------------------------|
G|1111-9-9--1111-9-9--1111-9---|
D|1111-1111-1111-1111-1111-11--|
A|-----------------------------|
D|-----------------------------|

 x3
e|---------------------------|
B|---------------------------|
G|1111-9-9--1111---1111-9----|
D|1212-1212-1212---1111-11---|
A|---------------------------|
D|---------------------------|

e|-----------------------------------|
B|-----------------------------------|
G|1111-9-9--1111-9-9--1111-9--7/-----|
D|1111-1111-1111-1111-1111-11-9/-----|
A|-----------------------------------|
D|-----------------------------------|

 x2
e|-------------------------------------------|
B|-------------1212121212121212--------------|
G|111111111111-1111111111111111--777-666-7---|
D|121212121212-1212121212121212--777-777-7---|
A|141414141414-------------------------------|
D|-------------------------------------------|

e|-------------------------------|
B|-------------1212121212121212--|
G|111111111111-1111111111111111--|
D|121212121212-1212121212121212--|
A|141414141414-------------------|
D|-------------------------------|


 x4
e|-------------------------------------------------------|
B|-------------------------10-10-10-10-10-10-10101010----|
G|8-8--8h9p8--8-8--8h9p8---11-11-11-11-11-11-11111111----|
D|1111-111111-1111-111111--12-12-12-12-12-12-12121212----|
A|-------------------------------------------------------|
D|-------------------------------------------------------|

e|--------|
B|--------|
G|4-7-7---|
D|5-7-7---|
A|x-5-5---|
D|5-------|

 (1.34)
e|--------|
B|--------|
G|7-7-7---|
D|7-7-7---|
A|x-x-x---|
D|5-5-5---|

 (1.50)
e|-------------------------------------|
B|1515-17-1515-19-1515-17-1515-19-15/--|
G|-------------------------------------|
D|-------------------------------------|
A|-------------------------------------|
D|-------------------------------------|

 x2
e|------------------------------------------------------|
B|------------------------------------------------------|
G|1212121212121212-1111111111111111-77777777-66666666---|
D|1414141414141414-1212121212121212-99999999-77777777---|
A|------------------------------------------------------|
D|------------------------------------------------------|


e|--------------------------|
B|-------12~----------------|
G|11~----11~----9~----7~----|
D|12~----12~----9~----7~----|
A|14~-----------x-----x-----|
D|--------------7~----5~----|

 x1
e|----------------------------------------------------|
B|-----------------12121212121212---------------------|
G|1111111111111111-11111111111111-99999999-77777777---|
D|1212121212121212-12121212121212-99999999-77777777---|
A|1414141414141414----------------xxxxxxxx-xxxxxxxx---|
D|--------------------------------77777777-55555555---|

e|------------------------------------------------------------|
B|-----------------12121212121212-----------------------------|
G|1111111111111111-11111111111111---------99999999-77777777---|
D|1212121212121212-12121212121212---------99999999-77777777---|
A|1414141414141414------------------------xxxxxxxx-xxxxxxxx---|
D|----------------------------------------77777777-55555555---|


 x6
e|----------------------------------------------------|
B|-----------------12121212121212---------------------|
G|1111111111111111-11111111111111-99999999-77777777---|
D|1212121212121212-12121212121212-99999999-77777777---|
A|1414141414141414----------------xxxxxxxx-xxxxxxxx---|
D|--------------------------------77777777-55555555---|


e|-------------------------------------------------------------|
B|-------------------------------------------------------------|
G|1414-16-1414-16-14-18-16-14-1414-16-14-18-16-14------1414-16-|
D|------------------------------------------------1616---------|
A|-------------------------------------------------------------|
D|-------------------------------------------------------------|

e|---------------------------------------------|
B|---------------------------------------------|
G|1414-16-18-14-1414-16-18-14------------------|
D|----------------------------161616161616-----|
A|---------------------------------------------|
D|---------------------------------------------|

 x4
e|------------------|
B|------------------|
G|-----1414-1616----|
D|1616-x-x--x-x-----|
A|x-x--1212-1414----|
D|1616--------------|

Добавлено: 28.10.2013
Другие материалы по этой песне:
  • Аккорды и текст

Страница создана 05.10.2013
http://primanota.ru/tubelord/propeller-chords.htm
Привет, Гость.
Предлагаем пройти революционный курс по гитаре.
Подарок от PrimaNota.Ru, забирай!