PrimaNota.ru - самый крупный в мире бесплатный архив песенных текстов, аккордов, табулатур и нот


Tubelord - Our First American Friends - таба, видео

Регистрация Запомнить меня
Войти через:  Facebook Google Twitter Vk Yandex Mail.ru

Tubelord - Our First American Friends - таба, видео

Печатать
Просмотров: 89
-------------------------------------------------------------------------------
			     Our First American Friends - Tubelord
-------------------------------------------------------------------------------


e|----------------------------------------------------------|
B|----------------------------------------------------------|
G|2---2---2---4-6---6---6---6-2---2---2---4-2---2---2---4---|
D|--4---4---4-----7---7---7-----4---4---4-----4---4---4-----|
A|----------------------------------------------------------|
D|----------------------------------------------------------|

 x2
e|------------------------------------------|
B|----------5-5--5-5------------------------|
G|2-2--2-2--6-6--6-6--2-2--2-2--2-2--2-2----|
D|4-4--4-4--7-7--7-7--4-4--4-4--4-4--4-4----|
A|--------------------2-2--2-2--x-x--x-x----|
D|------------------------------4-4--4-4----|

 x2
e|-------------------------|
B|------0~-----------------|
G|2~----6~----2-2---2-2----|
D|4~----7~----4-4---4-4----|
A|------------2-2---x-x----|
D|------------------4-4----|

 (0.42 - 0.50)
e|14p0------14p0------14p0------14p0-14p0-------|
B|-----14p0------14p0------14p0-----------14p0--|
G|----------------------------------------------|
D|----------------------------------------------|
A|----------------------------------------------|
D|----------------------------------------------|

e|----|
B|7---|
G|7---|
D|x---|
A|x---|
D|5---|
 
 (0.54)
e|------------------|
B|---------55555555-|
G|---------44444444-|
D|---------xxxxxxxx-|
A|00000000-xxxxxxxx-|
D|00000000-22222222-|

 x3
e|--------------------------------------|
B|7777777-------------------55555555----|
G|7777777-999999------------44444444----|
D|xxxxxxx-777777------------xxxxxxxx----|
A|xxxxxxx-xxxxxx-2-00000000-xxxxxxxx----|
D|5555555-777777-2-00000000-22222222----|

  x4
e|---------------------------------------------|
B|---------------------------------------7+----|
G|---------------------------------------7+----|
D|---------------------------------------7+----|
A|------5-4p0-0h2/-5p4--------5-4p0-0h2/-------|
D|0h5h7-----------------0h5h7------------------|

e|---------------------------------------------|
B|---------------------------------------------|
G|---------------------------------------------|
D|------------------------------7p0-0h5/7------|
A|------5-4p0-0h2/-5p4------7p0----------------|
D|0h5h7-----------------5/9--------------------|


e|-------------------|
B|3----7-------------|
G|4----7----9----9---|
D|x----x----7----7---|
A|x----x----5----x---|
D|2----5---------7---|

 x3
e|---------------------------------------|
B|33333333-77777777----------------------|
G|44444444-77777777-99999999-99999999----|
D|xxxxxxxx-xxxxxxxx-77777777-77777777----|
A|xxxxxxxx-xxxxxxxx-55555555-xxxxxxxx----|
D|22222222-55555555----------77777777----|

 x1
e|------------------|
B|333333-555555-----|
G|444444-666666-----|
D|xxxxxx-xxxxxx-----|
A|555555-777777-----|
D|------------------|

 X1
e|---------------------------------------|
B|----8/--10-----------------------------|
G|----9/--11-----------------------------|
D|------------11/-1212--12-9-9---11-9----|
A|0-0---------12/-1414--14-1212--12-10---|
D|0-0------------------------------------|

 x3
e|------------------------------------|
B|-8/--10-----------------------------|
G|-9/--11-----------------------------|
D|---------11/-1212--11-77--11-9--44--|
A|---------12/-1414--12-99--12-10-55--|
D|--------------------------------00--|
 x4
e|---------------------------------|
B|----101010-----------------------|
G|----111111-----------------------|
D|---------------------------------|
A|------------------5-7-0---5-7-9--|
D|2-0---------5-7-8-------8--------|

 X2
e|-----------------------------|
B|-----------12~-12-10---------|
G|11~----14~-----------12~-----|
D|X------X---------------------|
A|9~-----12~-------------------|
D|-----------------------------|

e|------------------------------------------------------------------|
B|----------------------------------12121212-10101010101010101010---|
G|1111111111111111-1414141414141414-X-X-X-X--X-X-X-X-X-X-X-X-X-X----|
D|X-X-X-X-X-X-X-X--X-X-X-X-X-X-X-X--9-9-9-9--7-7-7-7-7-7-7-7-7-7----|
A|9-9-9-9-9-9-9-9--1212121212121212---------------------------------|
D|------------------------------------------------------------------|

e|--------------------|
B|--------------------|
G|--------------------|
D|------------5-7-----|
A|------5-7-9---------|
D|5-7-8---------------|

 X4
e|-----------------------------------------------|
B|77777777-55555555-88888888-1212121212121212----|
G|77777777-44444444-99999999-1212121212121212----|
D|xxxxxxxx-xxxxxxxx-xxxxxxxx-xxxxxxxxxxxxxxxx----|
A|55555555-33333333-77777777-1010101010101010----|
D|-----------------------------------------------|

 X4
e|---------------------------------------|
B|----8/--10-----------------------------|
G|----9/--11-----------------------------|
D|------------11/-1212--12-9-9---11-9----|
A|0-0---------12/-1414--14-1212--12-10---|
D|0-0------------------------------------|

 (4.15 - 4.55)
e|---------------------------|
B|---------------------------|
G|----2---2-------2---4------|
D|--4---4---4---4---4---4----|
A|5-----------5--------------|
D|---------------------------|

 (5.25)
e|----------------------|
B|----7-------7----7----|
G|7/9---9---9----9------|
D|--------0----0--------|
A|----------------------|
D|----------------------|
Добавлено: 21.10.2013
Другие материалы по этой песне:
  • Аккорды и текст

Страница создана 21.10.2013
http://primanota.ru/tubelord/our-first-american-friends-chords.htm
Привет, Гость.
Предлагаем пройти революционный курс по гитаре.
Подарок от PrimaNota.Ru, забирай!