PrimaNota.ru - самый крупный в мире бесплатный архив песенных текстов, аккордов, табулатур и нот


Tubelord - Obstacles - таба, видео

Регистрация Запомнить меня
Войти через:  Facebook Google Twitter Vk Yandex Mail.ru

Tubelord - Obstacles - таба, видео

Печатать
Просмотров: 73
-------------------------------------------------------------------------------
			     Obstacles - Tubelord
-------------------------------------------------------------------------------
 Tabbed by:dvanwyk
 Email:dustinvanwyk@yahoo.com

 Tuning:Drop D

 Intro
e|-------------------------------------------------|
B|-------------------------------------------------|
G|--------------------------1111111111111111-------|
D|11-11---11-11---11-11-----x-x-x-x-x-x-x-x--------|
A|9--9----9--9----9--9------9-9-9-9-9-9-9-9--------|
D|11-11---11-11---11-11----------------------------|

 Verse
e|--------------------------------------------------------------|
B|--------------5--------------5-------------5-------------5----|
G|--6-4---6-4-6------6-4---6-4-----6-4---6-4-----6-4---6-4------|
D|7-----4----------7-----4-------7-----4-------7-----4----------|
A|--------------------------------------------------------------|
D|--------------------------------------------------------------|

e|------------------------------------|
B|-------------10--------------10-----|
G|--7---7---7--------7---7---7--------|
D|9---9---9--------9---9---9----------|
A|------------------------------------|
D|------------------------------------|

e|-------------------------------------------------------------------------------------------------|
B|---------------------5-----------------------5-----------------------5-----------------------5---|
G|---66-44----66-44-66-------66-44----66-44-66-------66-44----66-44-66-------66-44----66-44-66-----|
D|77-------44-------------77-------44-------------77-------44-------------77-------44--------------|
A|-------------------------------------------------------------------------------------------------|
D|-------------------------------------------------------------------------------------------------|

e|----------------------------------------|
B|----10-------10-------10-------10-------|
G|--7----7---7----7---7----7---7----7-----|
D|9--------9--------9--------9------------|
A|----------------------------------------|
D|----------------------------------------|

e|----------------------------------------|
B|----------------------------------------|
G|----------------------------------------|
D|4--7-6----4--7-6------4--7-6------------|
A|4------7--4------7/9--4------7---0-0-0--|
D|4---------4-----------4----------0-0-0--|

e|-----------------------------------------------------|
B|------------5--------------5--------------5----------|
G|--6---4---4------6---4---4------6---4---4------------|
D|4---7---4------4---7---4------4---7---4--------------|
A|--------------------------------------------0-0-0----|
D|--------------------------------------------0-0-0----|

e|-------------------------------|
B|-------------------------------|
G|----6~-7/--9/-7-6~--6----------|
D|--7----9/-11/-9-7~----7--------|
A|9-----------------------9~-----|
D|-------------------------------|


e|--------------------|
B|9-9-9-9-9-9-9-9-----|
G|x-x-x-x-x-x-x-x-----|
D|6-6-6-6-6-6-6-6-----|
A|--------------------|
D|--------------------|

e|----------------|
B|11----9---------| NB:Strum This Chord progression
G|7-----6---------|
D|x--4--x---------|
A|x--4--x---------|
D|9--4--7---------|

 x2
e|-----------------------------------------------------------------------|
B|---------9/11--------------------------------------14------------------|
G|--6-7-6---------------------9h11-11h13-13h14-14-16----16-14-16-14-14---|
D|9-------9------7h9999-7h9-7---------------------------------18-16-16---|
A|-----------------------------------------------------------------------|
D|-----------------------------------------------------------------------|

 x4                                             x1
e|---------------------------------------------|--------------------------------------------|
B|14-14-14-14-14-14--10-10-10-10-10--15-15-14--|14-14-14-14-15-15-15-15-14-14-14-17-17-17---|
G|16-16-16-16-16-16--11-11-11-11-11--16-16-16--|16-16-16-16-16-16-16-16-16-16-16-19-19-19---|
D|---------------------------------------------|--------------------------------------------|
A|---------------------------------------------|--------------------------------------------|
D|---------------------------------------------|--------------------------------------------|

e|--------------------------------------|
B|-------------------17-17-17-17-17-17--|
G|13-13-13-13-13-13---x--x--x--x--x--x--|
D|-x--x--x--x--x--x--14-14-14-14-14-14--|
A|11-11-11-11-11-11---------------------|
D|--------------------------------------|


e|------------|
B|5~--7~------|
G|4~--6~------|
D|0~--0~------|
A|0~--0~------|
D|------------|

e|----------------------------------------------|
B|---14-----17-14----14-----14----19-14----17---|
G|13----13--------13-----16----16-------16------|
D|----------------------------------------------|
A|----------------------------------------------|
D|----------------------------------------------|

e|-------------------------|----------|
B|-------------------------|----------|
G|99-9/-1111-9/-11-11-66---|9--11-6---|
D|99-9/-7-7--9/-7--7--44---|9--7--4---|
A|77-7/-9-9--7/-9--9--44---|7--9--4---|
D|-------------------------|----------|

e|--------|
B|--------|
G|12+-----|
D|12+-----|
A|12+-----|
D|--------|

e|-----------------|
B|-----------------|
G|9--6--7--6--4----|
D|7--4--4--4--4----|
A|9--4--5--4--2----|
D|-----------------|

e|------------------------------------------|
B|17(x16)-14(x16)-15(x16)-------------------|
G|------------------------14(x16)-16(x16)---|
D|------------------------------------------|
A|------------------------------------------|
D|------------------------------------------|

e|---------------------|
B|---------------------|
G|9--6--7--6--7--------|
D|7--4--4--4--4--------|
A|9--4--5--4--5--------|
D|---------------------|

e|---------------------------------|
B|---------------------------------|
G|---------------------------------|
D|---------------------44--4-------|
A|---22-00-55-22-77-44-----4-------|
D|44-----------------------4-------|
Добавлено: 18.08.2013
Другие материалы по этой песне:
  • Аккорды и текст

Страница создана 18.08.2013
http://primanota.ru/tubelord/obstacles-chords.htm
Привет, Гость.
Предлагаем пройти революционный курс по гитаре.
Подарок от PrimaNota.Ru, забирай!