PrimaNota.ru - самый крупный в мире бесплатный архив песенных текстов, аккордов, табулатур и нот


Tubelord - I Am Azerrad - таба, бас-таба, видео

Регистрация Запомнить меня
Войти через:  Facebook Google Twitter Vk Yandex Mail.ru

Tubelord - I Am Azerrad - таба, бас-таба, видео

Печатать
Просмотров: 95
-------------------------------------------------------------------------------
		    I Am Azerrad - Tubelord
-------------------------------------------------------------------------------
 Tabbed by:dvanwyk
 Email:dustinvanwyk@yahoo.com

 Tuning:Drop D

 Intro
e|-----------------------------------------------|
B|------10~-------10~------10~----10~-----10~----|
G|---7---------7---------7------7-------7--------|
D|9----------------------------------------------|
A|-----------7---------5------9------10----------|
D|-----------------------------------------------|

 Verse
e|---------------------------------------------------------------|--------|
B|----10----10----10----10-----10----10-----10-----10------10----|-10~----|
G|--7-----7-----7-----7------7-----7------7------7-------7-------|--7~----|
D|9-----9-----9-----9--------------------------------------------|--x-----|
A|-------------------------7-----7------5------9------10---------|-10~----|
D|---------------------------------------------------------------|--------|

 
e|-----------|
B|0~---3~----|
G|2~---4~----|
D|0~---x-----|
A|2~---5~----|
D|-----------|

e|---------------------------------------------|
B|---------------------------------------------|
G|---------------------------------------------|
D|---------------------------------------xxxx--|
A|2-0--2---5-0-5---2-0-2--5-0-5-0-5-0-5--xxxx--|
D|2-0------5-0-5---2-0----5-0-5-0-5-0-5--xxxx--|

e|------------------------------------------------------------------------------|--------|
B|------------------------------------------------------------------------------|--------|
G|--------------------------2-----2-----2-----2--------2-----2-----2-----2--2---|2-22----|
D|00000000-77777777---2-2h4---2h4---2h4---2h4----2-2h4---2h4---2h4---2h4----4---|4-44----|
A|00000000-77777777-------------------------------------------------------------|--------|
D|00000000-77777777-------------------------------------------------------------|--------|

e|------------------------------------------------------------------------------------------|
B|----10--11b12-11b12-11b12-12--------------------------------12--10---12---10--------------|
G|444-x---------------------------------7----4----------------------------------12-12-12/---|
D|xxx-7----------------------------7-----------------7------9---9----9----9------x--x--x----|
A|222---------------------------00---00---00-----7h9---9-7----------------------10-10-10/---|
D|------------------------------------------------------------------------------------------|

e|---------------------------------------------------------------------------|
B|12----12----12----12----12----12----10----10----10----10----10----10-------|
G|---11----11----11----11----11----11----11----11----11----11----11----11----|
D|---------------------------------------------------------------------------|
A|---------------------------------------------------------------------------|
D|---------------------------------------------------------------------------|

e|----------------------14~--------17~----|
B|12~------12~----15~--------10~----------|
G|----------------------------------------|
D|----------------------------------------|
A|----------------------------------------|
D|----------------------------------------|

e|----5~----------------|
B|10~-X-----------------| *NB:Remember to strum this chord progression
G|7~--9~---7~---6~------|     after the melodic breakdown
D|9~--7~---7~---7~------|
A|X---5~---X----X-------|
D|9~-------5~---7~------|


e|-------------|
B|-------------|
G|7-777--------|
D|9-999--------|
A|X-XXX--------|
D|9-999--------|
Добавлено: 25.07.2013
Другие материалы по этой песне:
  • Аккорды и текст

Страница создана 25.07.2013
http://primanota.ru/tubelord/i-am-azerrad-chords.htm
Привет, Гость.
Предлагаем пройти революционный курс по гитаре.
Подарок от PrimaNota.Ru, забирай!