PrimaNota.ru - самый крупный в мире бесплатный архив песенных текстов, аккордов, табулатур и нот


Tubelord - Feed Me A Box Of Words - таба, видео

Регистрация Запомнить меня
Войти через:  Facebook Google Twitter Vk Yandex Mail.ru

Tubelord - Feed Me A Box Of Words - таба, видео

Печатать
Просмотров: 65
Band: Tubelord
Song: Feed Me a Box of Words
Tuning: Drop D

Intro: 

e|----x-x-x-x-x-----x-x-x-x-x----x-x-x-x-x--x-x-x-x-x-----|
B|----1010101010----7-7-7-7-7----3-3-3-3-3--3-3-3-3-3-----|
G|----7-7-7-7-7-----x-x-x-x-x----4-4-4-4-4--4-4-4-4-4-----|   x4
D|----9-9-9-9-9-----7-7-7-7-7----0-0-0-0-0--0-0-0-0-0-----|
A|----x-x-x-x-x-----x-x-x-x-x----5-5-5-5-5--5-5-5-5-5-----|
D|----9-9-9-9-9-----7-7-7-7-7----5-5-5-5-5--5-5-5-5-5-----|

Pre Verse: 

e|------------x-x-x-x--------------x---x-x------------x-x-x-x-----------|
B|------------5-5-5-5--------------5---5-5------------5-5-5-5-----------|
G|------------x-x-x-x--------------x---x-x------------x-x-x-x-----------|
D|----2---------------------2------------------2------------------2s/---|
A|----2---------------------2------------------2------------------2s/---|
D|----2---------------------2------------------2------------------2s/---|
                                                                                    
e|----------------------------------------------------------------------------------|
B|----------------------------------------------------------------------------------|
G|----------------------------------------------------------------------------------|
D|---9-7h9---9s/11s\9----9-7h9----9s/11s\9----9-7h9----9s/11s\9----9-7h9-9b/(10)s/--|
A|----------------------------------------------------------------------------------|
D|-9-------9-----------9--------9-----------9---------9-----------9-------9b/(10)s/-|

e|----------------------------------------------------------------------|
b|--------------------------10--------------------7-----------7---5-----|
G|----------11------9--11--------x4---------7-----------------------x2--|
D|--9--12-------12----------------------7--------------7----------------|
A|----------------------------------------------------------------------|
D|----------------------------------------------------------------------|
   
e|-------------------------------------------------------------------|
B|--------------------------10--------------------7-------7---5------|
G|----------11------9--11--------x4---------7--------------------x4--|
D|--9--12-------12----------------------7--------------7-------------|
A|-------------------------------------------------------------------|
D|-------------------------------------------------------------------|

e|----------------------------------------5-5-5-5--5------------------------------|
B|--------7--10-------7--10---7-7-7-5--5--7-7-7-5--5----------101010-101010-10----|
G|-----7-----------7----------x-x-x-x--x--7-7-7-7--7---x2------9-9-9--9-9-9--9----|
D|--9------------0------------7-7-7-7--7-----------------------7-7-7--7-7-7--7----|
A|----------------------------x-x-x-x--x------------------------------------------|
D|----------------------------5-5-5-5--5------------------------------------------|

                                           

e|-x-xx-x-xx-x-xx-x-xx-x-xx-x-xx-x-xx-x-xx-x-xx-x-xx-x-xx-x-xx-x-xx-x-xx-x-xx-x-|
B|-10xx10-xx10-xx10-xx-7-xx-7-xx-7-xx-7-xx-5-xx-5-xx-5-xx-5-xx-3-xx-3-xx-3-xx-3-|
G|-x-xx-x-xx-x-xx x-xx-x-xx-x-xx-x-xx-x-xx-x-xx-x-xx-x-xx-x-xx-x-xx-x-xx-x-xx-x-|
D|-9-xx-9-xx-9-xx 9-xx-7-xx-7-xx-7-xx-7-xx-5-xx-5-xx-5-xx-5-xx-2-xx-2-xx-2-xx-2-|
A|-x-xx-x-xx-x-xx x-xx-x-xx-x-xx-x-xx-x-xx-x-xx-x-xx-x-xx-x-xx-x-xx-x-xx-x-xx-x-|
D|-9-xx-9-xx-9-xx 9-xx-7-xx-7-xx-7-xx-7-xx-5-xx-5-xx-5-xx-5-xx-2-xx-2-xx-2-xx-2-|

(" I walked past your guardsmen...") 

e|-x-xx-x-xx-x-xx-x-xx-x-xx-x-xx-x-xx-x-xx-x-xx-x-xx-x-xx-x-xx-x------------------|
B|-10xx10-xx10-xx10-xx-7-xx-7-xx-7-xx-7-xx-5-xx-5-xx-5-xx-5-xx-3s/----------------|
G|-x-xx-x-xx-x-xx-x-xx-x-xx-x-xx-x-xx-x-xx-x-xx-x-xx-x-xx-x-xx-x---slide hand up--|
D|-9-xx-9-xx-9-xx-9-xx-7-xx-7-xx-7-xx-7-xx-5-xx-5-xx-5-xx-5-xx-2s/--and down neck-|
A|-x-xx-x-xx-x-xx-x-xx-x-xx-x-xx-x-xx-x-xx-x-xx-x-xx-x-xx-x-xx-x------------------|
D|-9-xx-9-xx-9-xx-9-xx-7-xx-7-xx-7-xx-7-xx-5-xx-5-xx-5-xx-5-xx-2s/----------------|


e|-x--x--x--x---x-x--x--x---x--x--x--x----x--x--x--x-|
B|-10-10-10-10--7--7--7--7---5--5--5--5---3--3--3--3-|
G|-x--x--x- x---x--x--x--x---x--x--x--x---x--x--x--x-| x2
D|-9--9--9- 9---7--7--7--7---5--5--5--5---2--2--2--2-|
A|-x--x--x- x---x--x--x--x---x--x--x--x---x--x--x--x-|
D|-9--9--9- 9---7--7--7--7---5--5--5--5---2--2--2--2-|


e|----------------------------------------------------12------|
B|---------------------------------12----14-------------------|
G|--14-14-14-14-14-14-14-14-----14--x-14--x-14-14-14-(14)-----|
D|--14-14-14-14-14-14-14-14-x3--14-14-14-14-14-14-14-(14)-----|
A|--12-12-12-12-12-12-12-12-----12-12-12-12-12-12-12-(12)-----|
D|------------------------------------------------------------|

e|----------------------------------------------12-----|
B|----------------------------------12----14-----------|
G|--14-14-14-14-14-14-14-14-----14--x-14--x-14---------|
D|--14-14-14-14-14-14-14-14-x3--14-14-14-14-14---------|
A|--12-12-12-12-12-12-12-12-----12-12-12-12-12---------|
D|-----------------------------------------------------|

("over the years...")

e|---------------------(0)------------------------------|
B|---10-----1212--------7----------------10-------------|
G|---9------1414--------9-----------11--------11--------|  x3
D|---x------1414----------------9-----------------------|
A|---9------1212----------------------------------------|
D|------------------------------------------------------|

e|-------------------------------(0)---------(0)---------|
B|---10---------1212--------------7-----------10---------|
G|---9----------1414--------------9--x8-------11--x8-----|       
D|---x----------1414--------------9-----------9----------|
A|---9----------1212-------------------------------------|
D|-------------------------------------------------------|

e|-------------------------------(0)---------(0)----------|
B|---10---------1212--------------7-----------10----------|
G|---9--x8------1414--x8----------9--x8-------11--x8------|     x2     
D|---x----------1414--------------9-----------9-----------|
A|---9----------1212--------------------------------------|
D|--------------------------------------------------------|

e|--------------7-------------------------------|
B|---7---------10---------5---------10----------|
G|---6---x8----9----x8----4--x8----11---x8------|
D|---4---------7----------2---------9-----------|
A|---4---------7----------2---------9-----------|
D|---4---------7----------2---------9-----------|

e|--------------7-------------------12-----------|
B|---7---------10---------5---------10-----------|
G|---6---x8----9----x8----4--x8-----11---x32-----|
D|---4---------7----------2---------9------------|
A|---4---------7----------2---------9------------|
D|---4---------7----------2---------9------------|

e|-------x------------x-------|
B|------10------------10------|
G|------11------------11------|
D|------0-------------0-------|
A|------0-------------0-------|
D|------0-------------0-------|

Breakdown:

Slide between chord transitions:

e|-----------------------------------------------------------|
B|----12--------3--------5--------8-------7------5-----------|
G|----0---x12---0---x4---0---x16--0--x12--0--x4--0--x16------| 1st time x1
D|----x---------x--------x--------x-------x------x-----------|
A|----10--------2--------3--------7-------5------3-----------|
D|-----------------------------------------------------------|

e|------------------------------------------------------------|
B|----12--------7--------5--------8-------7------5------------|
G|----0---x12---0---x4---0---x16--0--x12--0--x4--0--x16-------| 2nd time x1
D|----x---------x--------x--------x-------x------x------------|
A|----10--------5--------3--------7-------5------3------------|
D|------------------------------------------------------------|

e|-----------------------------------------------------------|
B|----12--------7--------5--------8-------7------5-----------|
G|----0---x12---0---x4---0---x16--0--x12--0--x4--0--x16------|
D|----x---------x--------x--------x-------x------x-----------|
A|----10--------5--------3--------7-------5------3-----------|
D|-----------------------------------------------------------|

e|----------------------------------------------------------|
B|----12--------7--------5--------8-------7------5----------|
G|----0---x12---0---x4---0---x16--0--x12--0--x4--0--x16-----|
D|----x---------x--------x--------x-------x------x----------|
A|----10--------5--------3--------7-------5------3----------|
D|----------------------------------------------------------|

Outro:

e|-------------------------------------------------------|
B|----12--------3--------5--------8-------7------5-------|
G|-------------------------------------------------------|   x5
D|-------------------------------------------------------|
A|----10--------2--------3--------7-------5------3-------|
D|-------------------------------------------------------|

e|------------|
B|---12+------|
G|------------|
D|------------|
A|---10-------|
D|------------|

End


| /  slide up
| \  slide down
| h  hammer-on
| p  pull-off
| ~  vibrato
| +  harmonic
| x  Mute note
Добавлено: 04.10.2013
Другие материалы по этой песне:
  • Аккорды и текст

Страница создана 04.10.2013
http://primanota.ru/tubelord/feed-me-a-box-of-words-chords.htm
Привет, Гость.
Предлагаем пройти революционный курс по гитаре.
Подарок от PrimaNota.Ru, забирай!