PrimaNota.ru - самый крупный в мире бесплатный архив песенных текстов, аккордов, табулатур и нот


Tubelord - Cows To The East Cities To The West - таба, видео

Регистрация Запомнить меня
Войти через:  Facebook Google Twitter Vk Yandex Mail.ru

Tubelord - Cows To The East Cities To The West - таба, видео

Печатать
Просмотров: 76
Уроки эстрадного вокала в Санкт-Петербурге
-------------------------------------------------------------------------------
		 Cows To The East, Cities To The West - Tubelord
-------------------------------------------------------------------------------
 Guitar 2

 Intro (0.0 - 0.12)
e|-----------|
B|-----------|
G|-----------|
D|3-3-3-3----|
A|-----------|
D|-----------|
 
 Verse x4
e|----------------------------------|
B|----------------------------------|
G|----------------------------------|
D|3-3-3-3-3-3-3-3-3-3-3-3-3-3-3-3---|
A|--------3-3-3-3-1-1-1-1-----------|
D|----------------------------------|

 Chrous x2
e|----------------------------------|
B|----------------------------------|
G|----------------------------------|
D|3-3-3-3-3-3-3-3-3-3-3-3-3-3-3-3---|
A|----------------1-1-1-1-----------|
D|--------5-5-5-5-------------------|

 Post Chorus x1
e|----------------------------------------------------------------------------------------------|
B|--0-----0-----0-----0----6-----6-----6-----6-----6-----6-----6-----6-----6-----6-----6----6---|
G|---------------------------5-----5-----5-----5-----5-----5-----5-----5-----5-----5-----5----5-|
D|3-----3-----3-----3---------------------------------------------------------------------------|
A|----------------------------------------------------------------------------------------------|
D|------------------------5----5-----5-----5-----7-----7-----7-----7-----8-----8-----8-----8----|

 Verse x4
e|----------------------------------------------------------------------------------------------|
B|--6-----6-----6-----6----6-----6-----6-----6-----6-----6-----6-----6-----6-----6-----6----6---|
G|----5-----5-----5-----5----5-----5-----5-----5-----5-----5-----5-----5-----5-----5-----5----5-|
D|3-----3-----3-----3----------------------------------------------------3-----3-----3-----3----|
A|----------------------------------------------------------------------------------------------|
D|------------------------5----5-----5-----5-----7-----7-----7-----7----------------------------|

 Chorus x2
e|----------------------------------------------------------------------------------------------|
B|--0-----0-----0-----0----6-----6-----6-----6-----6-----6-----6-----6-----6-----6-----6----6---|
G|---------------------------5-----5-----5-----5-----5-----5-----5-----5-----5-----5-----5----5-|
D|3-----3-----3-----3---------------------------------------------------------------------------|
A|----------------------------------------------------------------------------------------------|
D|------------------------5----5-----5-----5-----7-----7-----7-----7-----8-----8-----8-----8----|

  Bridge x2
e|---------------------------------------------------|
B|1-1-1-1-1-1----------------------------------------|
G|------------2-2-2-2-2-2-3-3-3-3-3-3-2-2-2-2-2-2----|
D|-3-3-3-3-3---3-3-3-3-3-----------------------------|
A|-------------------------1-1-1-1-1-1-1-1-1-1-1-----|
D|---------------------------------------------------|

 Outro
e|-------------------------------------------|
B|6666666-66666666-66666666------------------|
G|5555555-55555555-55555555-1010101010101010-|
D|3333333-xxxxxxxx-xxxxxxxx-1010101010101010-|
A|--------xxxxxxxx-xxxxxxxx-x-x-x-x-x-x-x-x--|
D|--------55555555-77777777-8-8-8-8-8-8-8-8--|

===============================================================================

 Guitar 2

 (1.24 - 2.44) (3.08 - 3.38)
e|-------------------------------------------|
B|10----------------------10-----------------|
G|----12--10--9-10-9----------12--10--9-10~--|
D|-------------------10----------------------|
A|-------------------------------------------|
D|-------------------------------------------|
Добавлено: 02.12.2013
Другие материалы по этой песне:
  • Аккорды и текст

Страница создана 02.12.2013
http://primanota.ru/tubelord/cows-to-the-east-cities-to-the-west-chords.htm
Привет, Гость.
Предлагаем пройти революционный курс по гитаре.
Подарок от PrimaNota.Ru, забирай!