PrimaNota.ru - самый крупный в мире бесплатный архив песенных текстов, аккордов, табулатур и нот


Tubelord - A Thing For Me - таба, видео

Регистрация Запомнить меня
Войти через:  Facebook Google Twitter Vk Yandex Mail.ru

Tubelord - A Thing For Me - таба, видео

Печатать
Просмотров: 88
-------------------------------------------------------------------------------
			 A Thing For Me - Tubelord
-------------------------------------------------------------------------------

 Tabbed by:dvanwyk
 Email:dustinvanwyk@yahoo.com

 Tuning:Standard

 Note:This is a cover by Tubelord of a band called Metronomy
      the original is pretty sweet..so check it out.


 Intro x16
e|------------------------|
B|------------------------|
G|------------------------|
D|------------------------|
A|0000000000000000--------|
E|------------------------|

 x2
e|--------------------------------------|
B|88888888-88888888---------------------|
G|77777777-77777777---------------------|
D|xxxxxxxx-xxxxxxxx---------------------|
A|xxxxxxxx-77777777---------------------|
E|55555555----------77777777888888888---|

 x1
e|--------------------------------------|
B|88888888-88888888-88888888888888888---|
G|77777777-77777777-77777777777777777---|
D|xxxxxxxx-xxxxxxxx-xxxxxxxxxxxxxxxxx---|
A|xxxxxxxx-77777777-xxxxxxxxxxxxxxxxx---|
E|55555555----------77777777888888888---|

 x1
e|-------------------------------------|
B|88888888-88888888--------------------|
G|77777777-77777777-77777777777777777--|
D|xxxxxxxx-xxxxxxxx-xxxxxxxxxxxxxxxxx--|
A|xxxxxxxx-77777777-xxxxxxxxxxxxxxxxx--|
E|55555555----------77777777888888888--|


 verse x1
e|-----------------------------------------------|
B|8~----------------------------8~---------------|
G|7~----------------------------7~--------12~----|
D|0~----------------------------x----7~---12~----|
A|0~---7~-----------------------7~---x----x------|
E|-----------8~----10~----5~---------8~---10~----|

 x2
e|-----------------------|
B|8~---8~----------------|
G|7~---7~---9~---12~-----|
D|x----x----x----12~-----|
A|x----7~---x----x-------|
E|5~--------8~---10~-----|


 Chorus x4
e|--------------------------------------|
B|88888888-88888888-88888888888888888---|
G|77777777-77777777-77777777777777777---|
D|xxxxxxxx-xxxxxxxx-xxxxxxxxxxxxxxxxx---|
A|xxxxxxxx-77777777-xxxxxxxxxxxxxxxxx---|
E|55555555----------77777777888888888---|

 Post Chorusx4
e|-------------------------------|
B|8-88---88-8-7-5-3-33-3-5-55----|
G|7-77---77-7-7-5-4-44-4-5-55----|
D|x-xx---xx-x-x-x-x-xx-x-x-xx----|
A|x-xx-5-77-7-5-3-2-22-2-3-33----|
E|5-55---------------------------|

 Verse x4
e|-----------------------|
B|8~---8~----------------|
G|7~---7~---9~---12~-----|
D|x----x----x----12~-----|
A|x----7~---x----x-------|
E|5~--------8~---10~-----|

 Chorus x4


 Post Chorus x4
Добавлено: 10.11.2013
Другие материалы по этой песне:
  • Аккорды и текст

Страница создана 10.11.2013
http://primanota.ru/tubelord/a-thing-for-me-chords.htm
Привет, Гость.
Предлагаем пройти революционный курс по гитаре.
Подарок от PrimaNota.Ru, забирай!