PrimaNota.ru - самый крупный в мире бесплатный архив песенных текстов, аккордов, табулатур и нот


Tsuneo Imahori - Suna No Hoshi Sandy Planet - таба, видео

Регистрация Запомнить меня
Войти через:  Facebook Google Twitter Vk Yandex Mail.ru

Tsuneo Imahori - Suna No Hoshi Sandy Planet - таба, видео

Печатать
Просмотров: 73
-------------------------------------------------------------------------------
        SUNA NO HOSHI - Tsuneo Imahori (Trigun Soundtrack)
-------------------------------------------------------------------------------
Tabbed by: zeffire
E-mail: zeffirelee@gmail.com

Tuning: Drop D


It's a difficult song, and you can probably get away with more simplified versions
but that doesn't do the song justice. It's a beautiful song from a beautiful
scene in the show, so I wanted to write a more accurate tab. I dunno if the fingerings
are good but whatevs.

------------------------------------------10--------------------|
------------------------------------10-----------5--------------|
11--9--12--11--9---12----------11------12----11--0---0----------|
----11--9------11--9--------12*---11----9----------0----12*-----|
12---------12--------10---12*----------------12---------12*-----|
0-----------0-----------0------------------------5------------5-|


----------------------------------------------------0--2--2-----|
------------------------------7------------------3--------------|
11-9--12--11--9---12------------6---0---6-0---6-----0-----3--3--|
---11--9------11--9--------12*----7-9-0-7-9-0-7--0-----0--------|
12--------12--------10---12*------------------------------1-----|
0----------0-----------12*----------5-----5------4--2--0--------|


-2-7-2-2-2-0-9-5---------------------3-3-------------0------0---|
-----5-3-2----------5--------------0-------------1-2-----2------|
---0--------------6------2-0-0-0-0-----0--0-0-0-3---------------|
---------------5------7--0-0-5-4-2-1-0----3-3-3-----------------|
----------------------------------------------------------------|
-------------------------4-2-----------1------1----0--0--0---0--|

                                                            Fine
--0-2--3-2-3-2-0----10--7------2--5--3--2-----0-----------------|
3-----------------3--7--5--3-5-2--5--3--2-----0----3-----3------|
0-0-0--0-0-0------------0------2--6--4--2-----0------0-2--------|
------------------4--9-------------------------------------4----|
0--0-0-1--1-----1/2-------------0--0--0--0--0---0---------------|
---------------------------------------------------0------------|


--------------------------------------------10--7---------------|
--------7-5---------7-5--------------10--7--10--7--10--7--------|
----7-6-7-6-----7-6-7-6---7-----9--7--9--7----------9--7--9--7--|
7-5-7-5-------5-7-5-------7--7--9--7----------------------9--7--|
7-5---------7-5--------------7----------------------------------|
5-----------5-------------0-------------------------------------|


------------------------------------------10--14--12--10--7-5-3-|
--------7-5---------7-5------------7--10--10--15--12--10--8-7-5-|
----7-6-7-6-----7-6-7-6---7-----7--7---9------------------0-----|
7-5-7-5-------5-7-5-------7--7--7-------------------------------|
7-5---------7-5--------------7----------------------------------|
5-----------5-------------0-------------------------------------|


2-------2-3-2---2-------2-3-2---2-------2-3-2---2-------2-5-3---|
-----3---------------3---------------3---------------3----------|
--0---------------0---------------0---------------0-------------|
----------------------------------------------------------------|
3---------------3---------------2---------------2---------------|
----------------------------------------------------------------|

3-------3-2-3---3-----3-10-8--8--6------------------------------|
-----3--------------3---------------8---------------------------|
--0---------------0--------------------7-8-7--------------------|
----------------------------------------------8-5-3--------1----|
1---------------1-------------6----------------------1----------|
--------------------------------------------------------1-------|


---------------0--2-----------3---2-----------5---5-------------|
------------3--------------3---------------3--------------------|
---------2--------3-----3---------4-----4---------3-------------|
0-----2-----0--------0---------------0------------0-------------|
---0------------------------------------------------------------|
0-----------------0---------------0-----------------------------|

                                                 Da Capo al Fine
12----14----10-----7-----9-----5-----10------12------8------5---|
------------------------------------------------------------6---|
---13----12----11-----8-----7-----6------11------10-----9---6---|
12----11----10-----7-----6-----5-----10-------9------8------5---|
----------------------------------------------------------------|
----------------------------------------------------------------|


************************************

| /   slide up
| \   slide down
| h   hammer-on
| p   pull-off
| ~   vibrato
| *   harmonic
| x   Mute note
| b   Bend
| pb  Pre-bend
| br  Bend release
| pbr Pre-bend release
| brb Bend release bend

************************************
Добавлено: 14.10.2014
Другие материалы по этой песне:
  • Аккорды и текст

Страница создана 14.10.2014
http://primanota.ru/tsuneo-imahori/suna-no-hoshi-sandy-planet-chords.htm
Привет, Гость.
Предлагаем пройти революционный курс по гитаре.
Подарок от PrimaNota.Ru, забирай!