PrimaNota.ru - самый крупный в мире бесплатный архив песенных текстов, аккордов, табулатур и нот


Tsunami Bomb - Irish Boy - аккорды и текст, таба, видео

Регистрация Запомнить меня
Войти через:  Facebook Google Twitter Vk Yandex Mail.ru

Tsunami Bomb - Irish Boy - аккорды и текст, таба, видео

Печатать
Просмотров: 114
Irish Boy
Tsunami Bomb
Irish boy
Tsunami Bomb
Standard tuning (EADGBE)
tabbed by bobsyouruncle

This is a great song to play!!  It seems almost 100% CORRECT to me!
 

Intro x3
e--------------------------------------------------------------------
B-------------------------3-4-3--------------------------------------
G------5-5-------------5--------5-3------------5-5-------------------
D--3-3-----3—5h3---3-3--------------6-5----3-3-----3-3-5h3---6-6-5-6-
A----------------6-----------------------------------------6---------
E--------------------------------------------------------------------

e--------------------------------------------------------------------
B--------------------------------------------------------------------
G-3-5-3--------------------------------------------------------------
D-------6-5-3--------------------------------------------------------
A-------------6------------------------------------------------------
E--------------------------------------------------------------------

Verse x4
e--------------------------------------------------------------------
B--------------------------------------------------------------------
G10-10-10-10---------6-6-6-6-----8-8---------------------------------
D-8--8--8--8-6-6-6-6-6-6-6-6-6-6-8-8---------------------------------
A-8--8--8--8-6-6-6-6-4-4-4-4-6-6-6-6---------------------------------
E------------4-4-4-4---------4-4-------------------------------------


Break x3 I couldn't figure out this part so well so bare with me
e-------------------------------------------------------------------------
B-------------------------------------------------------------------------
G10-10-10-10-10-10-10--6-6-6-6-6-6--6--8-8-8-8-8-8------------------------
D10-10-10-10-10-10-10--6-6-6-6-6-6--6--8-8-8-8-8-8—-----------------------
A-8--8--8--8--8--8--8--4-4-4-4-4-4--4--6-6-6-6-6-6--8p7h8-5h7h8—8p7h10----
E-------------------------------------------------------------------------
Pm ---------------     -----------     -----------

The fourth time has a different ending
e-------------------------------------------------------------------------
B-------------------------------------------------------------------------
G10-10-10-10-10-10-10--6-6-6-6-6-6--6--8-8-8-8-8-8------------------------
D10-10-10-10-10-10-10--6-6-6-6-6-6--6--8-8-8-8-8-8—-6-6-6-6---6-----------
A-8--8--8--8--8--8--8--4-4-4-4-4-4--4--6-6-6-6-6-6--6-6-6-6---6-----------
E---------------------------------------------------4-4-4-4---4-----------
Pm----------------     -----------     ----------   -------

Pre-Chorus
e--------------------------------------------------------------------
B------------------------------------------------------—-------------
G-5-5-5-5-5-5--3-4-5-5-5-5-5-5--3-4-5-5-5-5-5-5--3-4-5-5-5-5-5-5-8---
D-5-5-5-5-5-5--3-4-5-5-5-5-5-5--3-4-5-5-5-5-5-5--3-4-5-5-5-5-5-5-8---
A-3-3-3-3-3-3--1-2-3-3-3-3-3-3--1-2-3-3-3-3-3-3--1-2-3-3-3-3-3-3-6---
E--------------------------------------------------------------------

Chorus x3
e--------------------------------------------------------------------
B------------------------------------------------------—-------------
G-10-10-10-10-------------8-8-8-8------------------------------------
D-10-10-10-10-10-10-10-10-8-8-8-8-8-8-8-8----------------------------
A--8--8--8--8-10-10-10-10-6-6-6-6-8-8-8-8----------------------------
E--------------8--8--8--8---------6-6-6-6----------------------------

On fourth time of playing chorus
e--------------------------------------------------------------------
B--------------------------------------------------------------------
G-10----------8------------------------------------------------------
D-10----10----8----8-------------------------------------------------
A--8----10----6----8-------------------------------------------------
E--------8---------6-------------------------------------------------

Intro x2
e--------------------------------------------------------------------
B-------------------------3-4-3--------------------------------------
G------5-5-------------5--------5-3------------5-5-------------------
D--3-3-----3—5h3---3-3--------------6-5----3-3-----3-3-5h3---6-6-5-6-
A----------------6-----------------------------------------6---------
E--------------------------------------------------------------------

e--------------------------------------------------------------------
B--------------------------------------------------------------------
G-3-5-3--------------------------------------------------------------
D-------6-5-3--------------------------------------------------------
A-------------6------------------------------------------------------
E--------------------------------------------------------------------
 
 Verse x4
e--------------------------------------------------------------------
B--------------------------------------------------------------------
G10-10-10-10---------6-6-6-6-----8-8---------------------------------
D-8--8--8--8-6-6-6-6-6-6-6-6-6-6-8-8---------------------------------
A-8--8--8--8-6-6-6-6-4-4-4-4-6-6-6-6---------------------------------
E------------4-4-4-4---------4-4-------------------------------------

Break x3 
e-------------------------------------------------------------------------
B-------------------------------------------------------------------------
G10-10-10-10-10-10-10--6-6-6-6-6-6--6--8-8-8-8-8-8------------------------
D10-10-10-10-10-10-10--6-6-6-6-6-6--6--8-8-8-8-8-8—-----------------------
A-8--8--8--8--8--8--8--4-4-4-4-4-4--4--6-6-6-6-6-6--8p7h8-5h7h8—8p7h10----
E-------------------------------------------------------------------------
Pm ---------------     -----------     -----------

The fourth time has a different ending
e-------------------------------------------------------------------------
B-------------------------------------------------------------------------
G10-10-10-10-10-10-10--6-6-6-6-6-6--6--8-8-8-8-8-8------------------------
D10-10-10-10-10-10-10--6-6-6-6-6-6--6--8-8-8-8-8-8—-6-6-6-6---6-----------
A-8--8--8--8--8--8--8--4-4-4-4-4-4--4--6-6-6-6-6-6--6-6-6-6---6-----------
E---------------------------------------------------4-4-4-4---4-----------
Pm----------------     -----------     ----------   -------

Pre-Chorus
e--------------------------------------------------------------------
B------------------------------------------------------—-------------
G-5-5-5-5-5-5--3-4-5-5-5-5-5-5--3-4-5-5-5-5-5-5--3-4-5-5-5-5-5-5-8---
D-5-5-5-5-5-5--3-4-5-5-5-5-5-5--3-4-5-5-5-5-5-5--3-4-5-5-5-5-5-5-8---
A-3-3-3-3-3-3--1-2-3-3-3-3-3-3--1-2-3-3-3-3-3-3--1-2-3-3-3-3-3-3-6---
E--------------------------------------------------------------------

Chorus x3
e--------------------------------------------------------------------
B------------------------------------------------------—-------------
G-10-10-10-10-------------8-8-8-8------------------------------------
D-10-10-10-10-10-10-10-10-8-8-8-8-8-8-8-8----------------------------
A--8--8--8--8-10-10-10-10-6-6-6-6-8-8-8-8----------------------------
E--------------8--8--8--8---------6-6-6-6----------------------------

On fourth time of playing chorus
e--------------------------------------------------------------------
B--------------------------------------------------------------------
G-10----------8------------------------------------------------------
D-10----10----8----8-------------------------------------------------
A--8----10----6----8-------------------------------------------------
E--------8---------6-------------------------------------------------

Bridge x4
e--------------------------------------------------------------------
B--------8h10—10h11---11p10p8----------------------------------------
G—10h12--------------------------------------------------------------
D--------------------------------------------------------------------
A--------------------------------------------------------------------
E--------------------------------------------------------------------

 x1
e--------------------------------------------------------------------
B--------------------------------------------------------------------
G--8-8-8-8-8-8-8-8-8-8-8-8-8-8-8-------------------------------------
D--8-8-8-8-8-8-8-8-8-8-8-8-8-8-8-------------------------------------
A--6-6-6-6-6-6-6-6-6-6-6-6-6-6-6-------------------------------------
E--------------------------------------------------------------------

Bridge x4
e--------------------------------------------------------------------
B--------8h10—10h11---11p10p8----------------------------------------
G—10h12--------------------------------------------------------------
D--------------------------------------------------------------------
A--------------------------------------------------------------------
E--------------------------------------------------------------------

x1
e--------------------------------------------------------------------
B--------------------------------------------------------------------
G--8-8-8-8-8-8-8-8-8-8-8-8-------------------------------------------
D--8-8-8-8-8-8-8-8-8-8-8-8-------------------------------------------
A--6-6-6-6-6-6-6-6-6-6-6-6-------------------------------------------
E--------------------------------------------------------------------

End on Intro x2
e--------------------------------------------------------------------
B-------------------------3-4-3--------------------------------------
G------5-5-------------5--------5-3------------5-5-------------------
D--3-3-----3—5h3---3-3--------------6-5----3-3-----3-3-5h3---6-6-5-6-
A----------------6-----------------------------------------6---------
E--------------------------------------------------------------------

e--------------------------------------------------------------------
B--------------------------------------------------------------------
G-3-5-3--------------------------------------------------------------
D-------6-5-3--------------------------------------------------------
A-------------6------------------------------------------------------
E--------------------------------------------------------------------
Добавлено: 23.07.2012
Другие материалы по этой песне:
  • Аккорды и текст

Страница создана 19.03.2012
http://primanota.ru/tsunami-bomb/irish-boy-chords.htm
Привет, Гость.
Предлагаем пройти революционный курс по гитаре.
Подарок от PrimaNota.Ru, забирай!