PrimaNota.ru - самый крупный в мире бесплатный архив песенных текстов, аккордов, табулатур и нот


Tsol - World War III - таба, видео

Регистрация Запомнить меня
Войти через:  Facebook Google Twitter Vk Yandex Mail.ru

Tsol - World War III - таба, видео

Печатать
Просмотров: 38

-------------------------------------------------------------------------------
                             World War III - T.S.O.L.
-------------------------------------------------------------------------------
Tabbed by: Slayer66JeffRIP
E-mail:

Tuning: Standard

I haven't figured out the whole song, but I know the part before the chorus. This is my first tab so yea

PRE-CHORUS

e|---------------------------------------------------------------------------|
B|---------------------------------------------------------------------------|
G|-------9-9-9-------7-7-7---------------------------------------------------|
D|--7-7--9-9-9--5-5--7-7-7---------------------------------------------------|
A|--7-7--7-7-7--5-5--5-5-5---------------------------------------------------|
E|--5-5---------3-3----------------------------------------------------------|

Добавлено: 31.07.2015
Другие материалы по этой песне:
  • Аккорды и текст

Страница создана 31.07.2015
http://primanota.ru/tsol/world-war-iii-chords.htm
Привет, Гость.
Предлагаем пройти революционный курс по гитаре.
Подарок от PrimaNota.Ru, забирай!