PrimaNota.ru - самый крупный в мире бесплатный архив песенных текстов, аккордов, табулатур и нот


Tsol - Tsol Ep (album) - бас-таба, видео

Регистрация Запомнить меня
Войти через:  Facebook Google Twitter Vk Yandex Mail.ru

Tsol - Tsol Ep (album) - бас-таба, видео

Печатать
Просмотров: 63
Album: TSOL EP
Artist: TSOL (True Sounds Of Liberty)
Genre: Hardcore Punk
Year: 1981

Hey guys! These are the bass tabs of the album and it's 95/100% correct. I have no doubt about
this.
Anyway, enjoy the TSOL!


01 Superficial Love

Intro/Verse:

G:------------------------
D:------------------------
A:--------888-7-777-5-----
E:---7-77-------------5---

Chorus:

G:-------------------------
D:-------------------------
A:---7777-8888-------------
E:-------------888-9-999---

Bridge:

G:-------------------
D:-------------------
A:------8------------
E:---77---55555555---

End:

G:----------
D:----------
A:------8---
E:---77-----

The order is:
.Intro (play 2 times after the 2 guitar's riff)
.Verse x4
.Chorus x4
.Verse x4
.Bridge x4
.Verse x6
.Chorus x4
.Verse x4
.End x1

-------------------------------------------------------------------------------------------------

02 Property Is Theft

Intro/Verse 1/End:

G:---------------------
D:---------------------
A:------77------------
E:---55-----8-5-55---

Chorus:

G:---------------------------------------
D:---------------------------------------
A:------------5--------------------------
E:---7-777777---8-7-7-3-333333-5555555---

Verse 2:

G:---------------------
D:---------------------
A:---33--55--7-77-77---
E:---------------------


Bridge (it's the bass line during the guitar solo):

G:--------------------------------------
D:--------------------------------------
A:------------------------5555-77-------
E:---4-55-55-4-55-55--4-5---------7-7---

The order is this:
.Intro x4
.Verse 1 x4
.Chorus x2
.Verse 2 x4
.Chorus x2
.Verse 1 x4
.Chorus x2
.Verse 2 x4
.Bridge x4
.Chorus x2
.End x2

-------------------------------------------------------------------------------------------------

03 No Way Out

Verse:

G:---------------------------
D:--------------5555-3-333---
A:---5555-3-333--------------
E:---------------------------

Chorus:

G:------------------
D:---2---2----------
A:-----2---2-5555---
E:------------------

The order is:
.Verse x4
.Chorus x4

Repeat this for 3 times and it's done.

-------------------------------------------------------------------------------------------------

04 Abolish Government/Silent Majority

Intro:

G:-----------------------    -----------------------
D:------------777-88-----    -----------------------
A:---77777777--------8---    ---77777777-9-9-8-88---
E:-----------------------x3  -----------------------x1

Verse 1:

G:-----------------------    ------------------------
D:-----------------------    ------------------------
A:-----------------------    ------------------------
E:---00000000-555-66-3---x3  ---00000000-3-3-1-111---x1

Bridge:

G:-------------------------------    -----------------
D:-------------------------------    -----------------
A:-------------------------------    -----------------
E:---7-555-7-555-7-5-7-5-7-555---x3  ---7-555-7-555---x1

Verse 2:

G:------------------------
D:------------------------
A:-------7-77-------------
E:---5-5------7-88-7-88---

Chorus:

G:----------------------------------------------------------------------------
D:----------------------------------------------------------------------------
A:------------3-333333-5-555555-2-222222--------------------------------------
E:---3-333333----------------------------5-555555-7-777777-8888888888888888---

The order is:
.Intro x1
.Verse 1 x2
.Bridge x1
.Verse 2 x6
.Chorus x1
.Verse 2 x6
.Chorus x1
.Verse 2 x4
.Chorus x2
.Verse x4

-------------------------------------------------------------------------------------------------

05 World War III

Part 1:

G:------------------------
D:-----------------7-77---
A:---6-77-6-77-6-7--------
E:------------------------

Part 2:

G:-----------------------
D:-----------------------
A:-------7-77-----5-55---
E:---5-5------3-3--------

Part 3:
G:-----------------------
D:-----------------------
A:---99999999----7-0-7---
E:------------10---------

Part 4:
G:------------------------
D:---7-77777--------------
A:-----------6-77-6-77----
E:------------------------

Part 5:
G:----------------------------------------
D:----------------------------------------
A:----------------------------------------
E:---9999999999999999-55555555-77777777---

The order is:
.Part 1 x6  (Third time you must play this just 4 times, not 6)
.Part 2 x1
.Part 1 x2
.Part 3 x3
.Part 4 x2
Repeat this for 3 time, then:
.Part 5 x4
.Part 1 x2



Tab by: mdc_ivan







Добавлено: 23.06.2016
Другие материалы по этой песне:
  • Аккорды и текст

Страница создана 23.06.2016
http://primanota.ru/tsol/tsol-ep-album-chords.htm
Привет, Гость.
Предлагаем пройти революционный курс по гитаре.
Подарок от PrimaNota.Ru, забирай!