PrimaNota.ru - самый крупный в мире бесплатный архив песенных текстов, аккордов, табулатур и нот


Tsjuder - Kill For Satan - текст песни, бас-таба, видео

Регистрация Запомнить меня
Войти через:  Facebook Google Twitter Vk Yandex Mail.ru

Tsjuder - Kill For Satan - текст песни, бас-таба, видео

Печатать
Просмотров: 92
x2
F|-----------------------------------------------------------|
C|-----------------------------------------------------------|
G|-----------------------------------------------------------|
D|-0-0-0-0-0-0-0-0-0-0-0-0-2-0-3-0-0-0-0-0-0-0-0-8-7-5-7-6-1-|

F|-----------------------------------------------------------|
C|-----------------------------------------------------------|
G|-----------------------------------------------------------|
D|-0-0-0-0-0-0-0-0-0-0-0-0-2-0-3-0-0-0-0-0-0-0-0-2-3-7-8-6-5-|

x2
F|------------------------------------------------------|
C|--------------555666555---------------555666555666----|
G|-555888777888----------888555888777888------------888-|
D|------------------------------------------------------|

x1
F|---------------------------------|
C|---------------------------------|
G|-------4-------4-------4-------4-|
D|-5-6-5---5-6-5---5-6-5---5-6-5---|

x2
F|------------------------------------------------------|
C|--------------555666555---------------555666555666----|
G|-555888777888----------888555888777888------------888-|
D|------------------------------------------------------|

x2
F|------------------------------------------------|
C|------------------------------------------------|
G|----7--6--------7--6--9-----7--6--------7--6--9-|
D|-0--------8--0-----------0--------8--0----------|

x2
F|------------------------------------------------------------------|
C|------------------------------------------------------------------|
G|---------66663333--------66669999--------66663333--------66669999-|
D|-00000000--------00000000--------00000000--------00000000---------|

x2
F|------------------------------------------------|
C|------------------------------------------------|
G|----7--6--------7--6--9-----7--6--------7--6--9-|
D|-0--------8--0-----------0--------8--0----------|

x4
F|--------------------------------------------------|
C|--------------------------------------------------|
G|--------------------------------------------------|
D|-111111111000111000111111222222222444222111111111-|

x2
F|------------------------------------------------------|
C|--------------555666555---------------555666555666----|
G|-555888777888----------888555888777888------------888-|
D|------------------------------------------------------|

x1
F|---------------------------------|
C|---------------------------------|
G|-------4-------4-------4-------4-|
D|-5-6-5---5-6-5---5-6-5---5-6-5---|

x8
F|---------------------------------|
C|---------------------------------|
G|---------------------------------|
D|-0-3-0-3-5-6-5-3-0-3-0-3-5-6-5-3-|

I am not %100 sure about that or the part that plays x4 after that.

x2
F|-----------------------------------------------------------|
C|-----------------------------------------------------------|
G|-----------------------------------------------------------|
D|-0-0-0-0-0-0-0-0-0-0-0-0-2-0-3-0-0-0-0-0-0-0-0-8-7-5-7-6-1-|

F|-----------------------------------------------------------|
C|-----------------------------------------------------------|
G|-----------------------------------------------------------|
D|-0-0-0-0-0-0-0-0-0-0-0-0-2-0-3-0-0-0-0-0-0-0-0-2-3-7-8-6-5-|

x1
F|------------------|
C|------------------|
G|------7----6----9-|
D|-0----------------|

x2
F|------------------------------------------------|
C|------------------------------------------------|
G|----7--6--------7--6--9-----7--6--------7--6--9-|
D|-0--------8--0-----------0--------8--0----------|

x2
F|------------------------------------------------------------------|
C|------------------------------------------------------------------|
G|---------66663333--------66669999--------66663333--------66669999-|
D|-00000000--------00000000--------00000000--------00000000---------|

x2
F|------------------------------------------------|
C|------------------------------------------------|
G|----7--6--------7--6--9-----7--6--------7--6--9-|
D|-0--------8--0-----------0--------8--0----------|

x4
F|--------------------------------------------------|
C|--------------------------------------------------|
G|--------------------------------------------------|
D|-111111111000111000111111222222222444222111111111-|
Добавлено: 24.02.2014
Вам также может быть интересно:
Другие материалы по этой песне:
  • Аккорды и текст

Страница создана 24.02.2014
http://primanota.ru/tsjuder/kill-for-satan-chords.htm
Привет, Гость.
Предлагаем пройти революционный курс по гитаре.
Подарок от PrimaNota.Ru, забирай!