PrimaNota.ru - самый крупный в мире бесплатный архив песенных текстов, аккордов, табулатур и нот


Tsisperi Trio - Suliko - таба, видео

Регистрация Запомнить меня
Войти через:  Facebook Google Twitter Vk Yandex Mail.ru

Tsisperi Trio - Suliko - таба, видео

Печатать
Просмотров: 1171
Уроки эстрадного вокала в Санкт-Петербурге
Suliko
Traditional Georgian



     Q    Q    Q    Q       Q    Q    Q    Q       Q    Q    Q    Q     
E||-------3---------3----|-------3---------3----|-------3---------3----|
B||-------3---------3----|-------3---------3----|-------3---------3----|
G||-------4---------4----|-------4---------4----|-------4---------4----|
D||------------0---------|------------0---------|------------0---------|
A||----------------------|----------------------|----------------------|
E||--3-------------------|--3-------------------|--3-------------------|


  Q    Q    Q    Q       Q    Q    Q    Q       Q    Q    Q    Q     
-------3---------3----|-------2---------2----|-------2---------2----|
-------3---------3----|-------3---------3----|-------3---------3----|
-------4---------4----|-------5---------5----|-------5---------5----|
------------0---------|--0-------------------|--0-------------------|
----------------------|------------0---------|------------0---------|
--3-------------------|----------------------|----------------------|


  Q    Q    Q    Q       Q    Q    Q    Q       Q    Q    Q    Q     
-------3---------3----|-------3---------3----|-------3--------------|
-------3---------3----|-------6---------6----|-------5---------5----|
-------4---------4----|-------5---------4----|-------5---------5----|
------------0---------|-------7----0---------|-------5---------5----|
----------------------|----------------------|--3-------------------|
--3-------------------|--3-------------------|------------3---------|


  Q    Q    Q    Q       Q    Q    Q    Q       Q    Q    Q    Q     
-------3--------------|-------2---------2----|-------3---------3----|
-------5---------5----|-------3---------3----|-------3---------3----|
-------5---------5----|-------5---------5----|-------4---------4----|
-------5---------5----|------------4---------|------------0---------|
--3-------------------|--5-------------------|----------------------|
------------3---------|----------------------|--3-------------------|


  Q    Q    Q    Q       Q    Q    Q    Q       Q    Q    Q    Q     
-------0---------0----|-------2---------2----|-------3---------3----|
-------1---------1----|-------3---------3----|-------3---------3----|
-------0---------0----|-------5----2----5----|-------4---------4----|
------------2---------|--0-------------------|------------0---------|
--0-------------------|----------------------|----------------------|
----------------------|----------------------|--3-------------------|


  Q    Q    Q    Q       Q    Q    Q    Q       Q    Q    Q    Q     
-------3---------3----|-------3---------3----|-------3---------3----|
-------6---------3----|-------5---------5----|-------5---------5----|
-------5---------4----|-------5---------5----|-------3----0----3----|
-------7----0---------|-------5----2----5----|----------------------|
----------------------|--3-------------------|--4-------------------|
--3-------------------|----------------------|----------------------|


  Q    Q    Q    Q       Q    Q    Q    Q       Q    Q    Q    Q     
-------2---------2----|-------0---------0----|-------0---------0----|
-------3---------3----|-------3---------3----|-------1---------1----|
-------5---------5----|-------1---------1----|-------0---------0----|
--0-------------------|----------------------|----------------------|
------------0---------|------------2---------|--0-------------------|
----------------------|--0-------------------|------------0---------|


  Q    Q    Q    Q       Q    Q    Q    Q       Q    Q    Q    Q      
-------2---------2----|-------3---------3----|-------3---------3----||
-------3---------3----|-------3---------3----|-------3---------3----||
-------5---------5----|-------4---------4----|-------4---------4----||
--0---------4---------|------------0---------|------------0---------||
----------------------|----------------------|----------------------||
----------------------|--3-------------------|--3-------------------||




Duration Legend
---------------
W - whole
H - half
Q - quarter
E - 8th
S - 16th
T - 32nd
X - 64th
. - note dotted
|-n-|  - n-tuplets


Tablature Legend
----------------
L - tied note
x - dead note
g - grace note
(n) - ghost note
> - accentuded note
NH - natural harmonic
AH - artificial harmonic
TH - tapped harmonic
SH - semi harmonic
PH - pitch harmonic
h - hammer on
p - pull off
b - bend
br - bendRelease
pb - preBend
pbr - preBendRelease
brb - bendReleaseBend
\n/ - tremolo bar dip
\n - tremolo bar dive
-/n - tremolo bar Release up
/n\ - tremolo bar inverted dip
/n - tremolo bar return
-\n - tremolo bar Release down
S - shift slide
s - legato slide
/ -  slide into from below or out of upwards
\ -  slide into from above or out of downwards
~ - vibrato
W - wide vibrato
tr - trill
TP - tremolo picking
T - tapping
S - slap
P - pop
< - fade in
^ - brush up
v - brush down
Добавлено: 27.07.2012
Другие материалы по этой песне:
  • Аккорды и текст

Страница создана 27.07.2012
http://primanota.ru/tsisperi-trio/suliko-chords.htm
Привет, Гость.
Предлагаем пройти революционный курс по гитаре.
Подарок от PrimaNota.Ru, забирай!