PrimaNota.ru - самый крупный в мире бесплатный архив песенных текстов, аккордов, табулатур и нот


Tsar - Calling All Destroyers - таба, видео

Регистрация Запомнить меня
Войти через:  Facebook Google Twitter Vk Yandex Mail.ru

Tsar - Calling All Destroyers - таба, видео

Печатать
Просмотров: 88
TSAR--Calling All Destroyers
>From TSAR, on Hollywood records
=-=-=-=-=-=-=-=-=-=-=-=-=-=-=-=-=
transcribed by Angelo Lanham

Thought I'd submit a transcription, and threre wasn't any TSAR up.  Really was
that simple.  This is best used if you know the song, and just play along
sorta.  I knoweth not the lyrics for sure, they're just to help you realize
where each part goes.  My first attempt at Tab, so forgive me if it's a might
confusing.  

-------
Verse
-------
(Guitar 1: Strumming)
D  
All the fads and all the kicks of a billion years have come to this

(Guitar 2: Riff A)
G              Em               G               Em
---------------|----------------|-----------------|-----------------
---------------|----------------|-----------------|-----------------
---------------|----------------|-----------------|-----------------
------5-5-4-5-4|----------------|--------5-5-4-5-4|-----------------
---------------|-7~~~~----------|-----------------|-7~~~~-----------
---------------|----------------|-----------------|-----------------
               On the planet                  of rock n' roll

(Guitar 3: Riff B)
G              Em               G                 Em
---------------|----------------|-----------------|-----------------
------8-8-7-8-7|-5~~~~----------|--------8-8-7-8-7|-5~~~~-----------
---------------|----------------|-----------------|-----------------
---------------|----------------|-----------------|-----------------
---------------|----------------|-----------------|-----------------
---------------|----------------|-----------------|-----------------

(Riffs A & B are played simultaneously on two guitars)

-----------
Interlude
-----------
Guitar 2: (Riff C)
D
---------------|----------------|-----------------|-----------------
-7~~~~~~~---7h9|-7~~~~-------7h9|\11~~~~~~~~~~----|9p77 9p77 9p77--
---------------|----------------|-----------------|-----------------
---------------|----------------|-----------------|-----------------
---------------|----------------|-----------------|-----------------
---------------|----------------|-----------------|-----------------

Guitar 3: (Riff D)
D
---------------|----------------|-----------------|-----------------
---------------|----------------|-----------------|-----------------
---------------|----------------|-----------------|-----------------
---------------|----------------|-----------------|-----------------
-5~~~~~~~~~-5h7|-5~~~~-------5h7|\9~~~~~~~~~------|7p55 7p55 7p55---
---------------|----------------|-----------------|-----------------

(Riff C & D are played Simultaneously on two guitars)

-------
Chorus
-------
Guitar 2: (Riff E)
D
---------------|----------------|-----------------|-----------------
-10p7-10b12-7--|----------------|-10p7-10b12-7----|--7--------------
---------------|----------------|-----------------|-----9---7-------
---------------|----------------|-----------------|-----------------
---------------|----------------|-----------------|-----------------
---------------|----------------|-----------------|-----------------

Guitar 3: (Riff F)
D
---------------|----------------|-----------------|-----------------
---------------|----------------|-----------------|-----------------
---------------|----------------|-----------------|-----------------
-7p4-7b9--4----|----------------|-7p4-7b9--4------|--4--------------
---------------|----------------|-----------------|-----7---5-------
---------------|----------------|-----------------|-----------------
Ooh... All over...all over the USA
Destroyers...the world will be calling all destroyesr

(Riffs E & F are, once again, played simultaneously on two guitars)

----------
Buildup
----------
(Section G)
Dm 
--------------------|----------------|-----------------|-----------------
--------------------|----------------|-----------------|-----------------
--------------------|----------------|-----------------|-----------------
--------------------|----------------|-----------------|-----------------
--------------------|-13~~~~---------|-15~~~~----------|-10~~~~----------
12p10-13p10-15p10-12|----------------|-----------------|-----------------

Dm 
--------------------|----------------|-----------------|-----------------
--------------------|----------------|-----------------|-----------------
--------------------|----------------|-----------------|-----------------
--------------------|----------------|-----------------|-----------------
--------------------|-13~~~~---------|-15~~~~----------|-17~~~~----------
12p10-13p10-15p10-12|----------------|-----------------|-----------------


---------------
Harmony Part
---------------
Guitar 2: (Riff H)
D
---------------------|----------------|
---------------------|----------------|
---------------------|----------------|
---------------------|----------------|
-9-7------------5-7-5|-9-7------------|
-----10-7-5--7-9-----|-----10-7-5-3-2-|

Guitar 3: (Riff I)
D
----------------------|------------------|
----------------------|------------------|
11-9-----------12-9-12|11-9--------------|
-----12-9-12-9-12-----|-----12-9-12-9-12-|
----------------------|------------------|
----------------------|------------------|

(guess what riffs H & I do simultaneously)

--------
Order
--------
Verse:
(Strum pattern alone)
(Riff A + B)
(Strum pattern alone)
(Riff A + B)

Interlude:
(Riff C + D)

Chorus:
(Riff E + F) x 2
(Riff A + B)

Verse:
(Strum pattern alone)
(Riff A + B)

Interlude:
(Riff C + D)

Chorus:
(Riff E + F) x 2
(Riff A + B)

Buildup thing:
(Riff G)
(Riff G, ascending, then a solo in Dm  it switches key>)

Solo chords: Dm/Bb/C

Harmony Part:
(Riffs H + I)


Toodles.  Enjoy.
     
Добавлено: 10.10.2013
Другие материалы по этой песне:
  • Аккорды и текст

Страница создана 10.10.2013
http://primanota.ru/tsar/calling-all-destroyers-chords.htm
Привет, Гость.
Предлагаем пройти революционный курс по гитаре.
Подарок от PrimaNota.Ru, забирай!