PrimaNota.ru - самый крупный в мире бесплатный архив песенных текстов, аккордов, табулатур и нот


Tryo - Sortez-les - текст песни, таба, видео

Регистрация Запомнить меня
Войти через:  Facebook Google Twitter Vk Yandex Mail.ru

Tryo - Sortez-les - текст песни, таба, видео

Печатать
Просмотров: 174
Авторы музыки: Christophe Mali
Авторы текста: Christophe Mali
Tryo - Sortez-les
Tabbed by: tobini

^: bend
/: slide

Intro:

e|--2-1--------2-1-1---|--2-1--------4-1-1--1-1-1-1-1-|-2-1--------2-1-1----|----------------------|
B|------3-0----------0-|------3-0---------------------|-----3-0-----------0-|--3-3-----------3-4---|
G|----------1----------|----------1-------------------|---------1-----------|------4-4-----4-------|
D|---------------------|------------------------------|---------------------|----------6-6---------|
A|---------------------|------------------------------|---------------------|----------------------|
E|---------------------|------------------------------|---------------------|----------------------|


OR


e|---------------------|------------------------------|---------------------|----------------------|
B|--7-6--------7-6-6---|--7-6--------9-6-6--6-6-6-6-6-|-7-6---------7-6-6---|--7-7-----------7-8---|
G|------7------------7-|------7-----------------------|-----7-------------7-|------9-9-6-6-9-------|
D|--------9-6----------|--------9-6-------------------|-------9-6-----------|----------------------|
A|---------------------|------------------------------|---------------------|----------------------|
E|---------------------|------------------------------|---------------------|----------------------|


CHORDS:

G#m          F#
e|---4---|   e|---2---|
B|---4---|   B|---2---|
G|---4---|   G|---3---|
D|---6---|   D|---4---|
A|---6---|   A|---4---|
E|---4---|   E|---2---|


G#m
Donnez-nous des jeux
Les plus malsains, oh oui, j'en veux
                F#
Allez enfermez-les, enfermez-les
Jusqu'a ce qu'ils ne puissent plus respirer
G#m
Qu'on les voit mourir
Ejectes, lynches pour le pire
           F# 
La cage au milieu du salon
Aime a voir les fauves tourner en rond
Et se dechiqu'ter pour juste une poignee de fric
Rentrer dans le moule de l'Amerique
Allez saignez-vous donc en musique
Donnez-nous du lisse
De la guimauve ou du reglisse
Donnez de l'image a bouffer
Pre-machee et pre-digeree
Donnez nous du vice
Surgelez nos vieilles idees
Vive mon frigo, vive ma tele
Il est plus vide qu'elle est blindee

G#m                                                        F#
Sortez-les, sortez-les, sortez-les, sortez-les, sortez les poubelles !
Sortez les ordures televisuelles !
G#m
Sans tele, sans tele, sans tele, sans tele, sans tele !
F#
Ho ciel !
     G#m
Ho non je suis accroc !


e|--2-1--------2-1-1---|--2-1--------4-1-1--1-1-1-1-1-|-2-1--------2-1-1----|------------------/14-|
B|------3-0----------0-|------3-0---------------------|-----3-0-----------0-|----------------------|
G|----------1----------|----------1-------------------|---------1-----------|--1-1-1-1-1-1-1-1-----|
D|---------------------|------------------------------|---------------------|----------------------|
A|---------------------|------------------------------|---------------------|----------------------|
E|---------------------|------------------------------|---------------------|----------------------|


OR


e|---------------------|------------------------------|---------------------|------------------/14-|
B|--7-6--------7-6-6---|--7-6--------9-6-6--6-6-6-6-6-|-7-6---------7-6-6---|----------------------|
G|------7------------7-|------7-----------------------|-----7-------------7-|----------------------|
D|--------9-6----------|--------9-6-------------------|-------9-6-----------|--6-6-6-6-6-6-6-6-----|
A|---------------------|------------------------------|---------------------|----------------------|
E|---------------------|------------------------------|---------------------|----------------------|


G#m
Etalez la maille
                                           F#
Montrez qu'y a que la tune qui vaille Noyez-nous de publicites
Engraissez-nous jusqu'a eclater
G#m
Mettez-nous les nerfs
Etalez les femmes et leur chairs
             F#
Blindees des plus beaux apparats
Excitez-nous, excitez-nous plus que ça
Amenez vos sponsors
A tout bout de champ ça pue la mort
Gerbez nos envies, nos desirs
Empechez-nous, empechez-nous de partir
Donnez-nous du vice
Bouchez les escaliers de service
Allez sequestrer nos esprits
Et souriez tout est permis
Tirez vers le bas
Ma television adore ça
Et tous les meubles en sont jaloux
Meme mon chiotte en est devenu fou

Sortez-les, sortez-les, sortez-les, sortez-les, sortez les poubelles !
Sortez les ordures televisuelles !
Sans tele, sans tele, sans tele, sans tele, sans tele !
Ho ciel !
Ho non je suis accroc !

G#m
Donnez-nous du pire
Reservez-vous pour l'avenir
          F#
Conservez votre mauvais goût
Pour les jours ou vous s'rez a bout
G#m
Donnez-nous du pire
Passez notre envie de reflechir
           F#
A coups de concepts debilissimes
Allez crachez-nous vos millesimes
Je suis accroc !


e|--2-1--------2-1-1---|--2-1--------4-1-1--1-1-1-1-1-|-2-1--------2-1-1----|------------------/14-|
B|------3-0----------0-|------3-0---------------------|-----3-0-----------0-|--4^5-----------------|
G|----------1----------|----------1-------------------|---------1-----------|------1-1-1-1-1-1-----|
D|---------------------|------------------------------|---------------------|----------------------|
A|---------------------|------------------------------|---------------------|----------------------|
E|---------------------|------------------------------|---------------------|----------------------|


OR


e|---------------------|------------------------------|---------------------|------------------/14-|
B|--7-6--------7-6-6---|--7-6--------9-6-6--6-6-6-6-6-|-7-6---------7-6-6---|----------------------|
G|------7------------7-|------7-----------------------|-----7-------------7-|--7^8-----------------|
D|--------9-6----------|--------9-6-------------------|-------9-6-----------|------6-6-6-6-6-6-----|
A|---------------------|------------------------------|---------------------|----------------------|
E|---------------------|------------------------------|---------------------|----------------------|



Donnez-nous des cons
Servez-les cockes ou bien ronds
C'est le zoo des animateurs
Leur donnez pas de bouffe c'est pas l'heure C'est l'heure de sourire
Servir de la niaiserie a mourir
A nous goinfrer a nous gaver
C'est pour nous
C'est pour nous divertir
Donnez-nous d'la meuf
Decolorez-les en jaune d'œuf
Allez souriez-moi souriez-moi
Et faites gicler vos proies

Sortez-les, sortez-les, sortez-les, sortez-les, sortez les poubelles !
Sortez les ordures televisuelles !
Sans tele, sans tele, sans tele, sans tele, sans tele !
Ho ciel !
Ho non je suis accroc !

G#m
Donnez-nous des stars
                                                     F#
De celles qui crachent dans leur bavoirs Et filmez leurS fetes 
minables
Au fin fond de leur bac a sable
G#m
Et lâchez vos bombes
De celles qui sont nauseabondes
        F#
Inondez nos vies nos foyers
Vous etes si presents qu'on est teube
G#m
Donnez-nous du pire
Reservez-vous pour l'avenir
Conservez votre mauvais gout
Pour les jours ou vous s'rez a bout
Tirez vers le bas
Ma television adore ça
Et tous les meubles en sont jaloux
Meme mon chiotte en est devenu fou

Sortez-les, sortez-les, sortez-les, sortez-les, sortez les poubelles !
Sortez les ordures televisuelles !
Sans tele, sans tele, sans tele, sans tele, sans tele !
Ho ciel !
Ho non je suis accroc !
Добавлено: 09.05.2012
Другие материалы по этой песне:

Страница создана 09.05.2012
http://primanota.ru/tryo/sortez-les-chords.htm
Привет, Гость.
Предлагаем пройти революционный курс по гитаре.
Подарок от PrimaNota.Ru, забирай!