PrimaNota.ru - самый крупный в мире бесплатный архив песенных текстов, аккордов, табулатур и нот


Tryo - Rcration - таба, видео

Регистрация Запомнить меня
Войти через:  Facebook Google Twitter Vk Yandex Mail.ru

Tryo - Rcration - таба, видео

Печатать
Просмотров: 98
Tryo - Recreation
Tabbed by: tobini

Intro:

/:slide

 Am        Cm   Am        Cm  Am             Cm         Am          Cm
e|--5--------|------------8-|--------5---------------|-----------------|
B|----5------|--------8-5---|----------8-5-----------|-----------------|
G|------5--8-|------5-------|--------------5-7/8--8--|-------5------8--|
D|-----------|--5/7---------|-5/7-7------------------|-5/7-7---7----7--|
A|-----------|--------------|------------------------|-----------6--6--|
E|-----------|--------------|------------------------|-----------------|

************************************

CHORDS:

Am           Cm
e|---5---|   e|---8---|
B|---5---|   B|---8---|
G|---5---|   G|---8---|
D|---7---|   D|---10--|
A|---7---|   A|---10--|
E|---5---|   E|---8---|

Bbm          Dbm
e|---6---|   e|---9---|
B|---6---|   B|---9---|
G|---6---|   G|---9---|
D|---8---|   D|---11--|
A|---8---|   A|---11--|
E|---6---|   E|---9---|

Bm           Dm
e|---7---|   e|---10---|
B|---7---|   B|---10---|
G|---7---|   G|---10---|
D|---9---|   D|---12---|
A|---9---|   A|---12---|
E|---7---|   E|---10---|

Em           Fm
e|---7---|   e|---8---|
B|---8---|   B|---9---|
G|---9---|   G|---10--|
D|---9---|   D|---10--|
A|---7---|   A|---8---|
E|-------|   E|-------|

F#m          Gm
e|---9---|   e|--10--|
B|---10--|   B|--11--|
G|---11--|   G|--12--|
D|---11--|   D|--12--|
A|---9---|   A|--10--|
E|-------|   E|------|

D#m              D#m
e|---11---|      e|--6--|
B|---11---|  OR  B|--7--|
G|---11---|      G|--8--|
D|---13---|      D|--8--|
A|---13---|      A|--6--|
E|---11---|      E|-----|

************************************

Am                  Cm 
He ouais ! On a des nouveaux colleges
Am                      Cm
Colleges de l'impunite, on va faire des bons eleves
Am                     Cm
Les enseignants s'ront armes
                         Am
Les classes en beton arme
                                 Cm
Quand a la cours de recre concue en fil barbele


Bbm         Dbm
He ouais ! Enfin une nouvelle education
Bbm                 Dbm
Travail famille patrie reeduquons la Nation
Bbm                      Dbm
Vos gosses sont des junkies qu'on les jette en prison
Bbm                 Dbm
Ce sont de malpolis qu'ont des parents indecis


Bm         Dm
He ouais ! On prend des decisions
Bm                     Dm
Les gens d'en bas sont mauvais en terme d'education
Bm                                 Dm
Puisqu'ils gerent mal leurs mouflets, puisqu'ils tiennent mal leur maison
Bm                 Dm
On va leur sucrer les allocations


  Em            Cm         Em          Cm
e|--12-------------------|-12-------------------|
B|-----12----------13----|----12----------------|
G|--------12-12/14----14-|-------12-12/14----12-|
D|-----------------------|----------------14----|
A|-----------------------|----------------------|
E|-----------------------|----------------------|

  Em            Cm         Em          Cm
e|--12-----------------|-12----------------------|
B|-----12----------13--|----12-------------------|
G|--------12-12/14-----|-------12-12/14-14-14-14-|
D|---------------------|-------------------------|
A|---------------------|-------------------------|
E|---------------------|-------------------------|

Em                   Cm
Allez, fusillons les droits d'l'enfance
Em                   Cm
On avait trop avance dans notre si jolie France
Em                      Cm
Enfermons les nouveaux-nes avant qui s'mettent a pleurer
Em                     Cm
Le calme c'est la sante, faut pas s'laisser emmerder


Em                   Cm
Allez, fusillons les droits d'l'enfance
Em                   Cm
Beaucoup de nos voisins en on fait l'experience
Em                   Cm
La prison fait du bien ca remet dans l'bon sens
Em                   Cm
Tu d'viendras un adulte sans passer l'adolescence


Fm                   Dbm
Allez, fusillons les droits d'l'enfance
Fm                   
Augmentons le temps de travail
Dbm
Diminuons les vacances
Fm                   Dbm
On va leur peter 20 chaînes de television
Fm                   Dbm
Ca va leur zapper leur envie de rebellion


F#m                   Dm
Allez, fusillons les droits d'l'enfance
F#m                   
Augmentons le temps de travail
Dm
Diminuons les vacances
F#m                        Dm
Faut qu'les parents bossent, faut qu'les parents bossent
F#m                   Dm
Pendant qu'la police s'occupe de leurs gosses


Gm                  D#m
Allez fusillons notre jeunesse
Gm                  D#m
Finis les feignants remplis d'allegresse
Gm                  D#m
Fini les rave- parties tout le monde au fitness
Gm                  D#m
Le sport c'est la sante les jeunes font qu'se droguer


Am                  Cm 
Allez, sortons le gouvernement
Am                  Cm 
Impunite zero pour notre President
Am                  Cm 
Prison pour les ministres qui se sont augmentes
Am                  Cm 
Pendant que la moitie du peuple se bat pour bouffer


Bbm                 Dbm
Allez sortons le gouvernement
Bbm                 Dbm
Impunite zero pour notre President
Bbm                 Dbm
Il est surement plus coupable
Bbm                 Dbm
Que la misere des enfants
Bbm                 Dbm
Qu'il veut enfermer en bon dirigeant


Bm                     Dm
Allez, sortons le gouvernement
Bm                     Dm
Il faut avancer, on est intelligent
Bm                     Dm
On va user les paves, user les paves, 
Bm                     Dm
user les paves, et ils vont reculer

Outro:

Bm - Dm x12 Bm

Guitar 2:
   
e|---------       ----------5-|
B|-7-6-5-6-  x6   7-6-5-6-7---|       
G|---------       ------------|
D|---------       ------------|
A|---------       ------------|
E|---------       ------------|     \
                                     ) x2 
e|---------       ----------7-|     /
B|-7-6-5-6-  x6   7-6-5-6-7---|
G|---------       ------------|
D|---------       ------------|
A|---------       ------------|
E|---------       ------------|
Добавлено: 30.04.2012
Другие материалы по этой песне:

Страница создана 20.04.2012
http://primanota.ru/tryo/rcration-chords.htm
Привет, Гость.
Предлагаем пройти революционный курс по гитаре.
Подарок от PrimaNota.Ru, забирай!