PrimaNota.ru - самый крупный в мире бесплатный архив песенных текстов, аккордов, табулатур и нот


Tryo - Pas Pareil - текст песни, таба, видео

Регистрация Запомнить меня
Войти через:  Facebook Google Twitter Vk Yandex Mail.ru

Tryo - Pas Pareil - текст песни, таба, видео

Печатать
Просмотров: 133
Авторы музыки: Christophe Mali
Авторы текста: Christophe Mali
Tryo - Pas pareil
Tabbed by: tobini
100% CORRECT TAB + SOLO

/:slide
h: hammer-on

Guitar 1:
    Bm        A        Bm        G
e|-----7----7---5---5-----7----7----10----10---|
B|-----7----7---5---5-----7----7----12----12---|
G|-----7----7---6---6-----7----7----12----12---|
D|---------------------------------------------|
A|----------------7--------------10------------|
E|--7---------5--------7---------------10------|


Guitar 2:
    Bm        A        Bm        G
e|--------------7--5---------------------------|
B|---------------------------------------------|
G|-------4-6-7------------4-6-7-6---4----------|
D|------------------------------------7---5-4--|
A|---------------------------------------------|
E|---------------------------------------------|

    Bm        A        Bm        G
e--------------7--5---7/9----7-----------------|
B------------------------------7---8/10--------|
G-------4-6-7----------------------------------|
D----------------------------------------------|
A----------------------------------------------|
E----------------------------------------------|

Bm                 A
C'est pas qu'on se sent different
Bm            G
Ou bien qu'on juge la vie
Bm                          A
Mais qu'est-ce qu'on s'sent loin des gens
      Bm            G
Quand on survole la ville sur son tapis
Bm          A
Et rire des gueules de deterres
Bm          G
Au fond du metro parisien
Bm              A
Mais nous c'est pas pareil
Bm                  G
On est creve quand on se leve le matin

Guitar 2:

e|--------------7--5---------------------------|
B|---------------------------------------------|
G|-------4-6-7------------4-6-7-6---4----------|
D|---------------------------------------------|
A|---------------------------------------------|
E|---------------------------------------------|

Bm           A
Au prolo qui s'enerve
Bm            G
Accroche a sa voiture credit
Bm           A
A chaque feu rouge qui traine
Bm              G
Dans les embouteillages de sa vie
Bm      A
A la fine rayure
Bm                  G
Sur la carrosserie de sa connerie
Bm              A
Si chere si sacre si dure
Bm            G
Que sa femme a cote se plie

Guitar 2:

e|--------------------------------------------------|
B|-------------------5-----------------5/7--5-------|
G|-------6-7-6-7-6-7---6---6-7-6-7-6-7--------------|
D|--------------------------------------------------|
A|--------------------------------------------------|
E|--------------------------------------------------|

NOTE: the pattern CHANGES!! Bm G Bm A!

Bm           G
Sa femme qui fait marcher
Bm                   A
A elle seule tout le tele-achat
Bm
Les feux d'l'amour
G
Et les navets.
Bm              A
De Foucault, Voici a Gala
Bm           G
A croire qu'sa les arrangent
Bm                A
De laisser s'agglutiner les cons
Bm                G
Sa fera d'l'abruti pour demain
Bm               A
D'la chasse d'la peche des traditions


NOTE: CHANGES again! Bm A Bm G

Bm              A
C'est pas qu'on se sent different
Bm               G
Quoique des fois un peu si
Bm             A
On comprend pas bien les gens
Bm                G
Alors on s'exclut de la partie
Bm                 A
Un sentiment bizarre
Bm                    G
Que le monde est peuple de cretins
Bm                A
Mais nous c'est pas pareil
Bm               G
On dit pas qu'on regarde TF1
Bm           
Mais nous c'est pas pareil...

************
BEFORE SOLO:

e|-----|  e|-----|
B|-----|  B|-----|
G|--6--|  G|--3--|
D|--9--|  D|--4--|
A|--9--|  A|--5--|
E|--7--|  E|--6--|


SOLO:

e|------------------------|------5-----------|----------------------------|
B|---6/7---10-7------7-7--|--4/5---5---------|----------------------------|
G|--------------9-7-9-----|----------7-6--4--|-3/4-7-4---4---4-7-4---4-4--|
D|------------------------|------------------|---------7-----------7------|
A|------------------------|------------------|----------------------------|
E|------------------------|------------------|----------------------------|

-------------------------6----|
--------------5-7-8-7-5-(5)-7/|
--4-7-4---4-7---------------7/|
--------7---------------------|
------------------------------|
------------------------------|

e---14-12-10-12--8/9-------9----7----7----7h8h9-------|------------9-7---9-7--------|
B--------------------10-10--------10---10-------10-7--|--6-4-0-6-------8------------|
G-----------------------------------------------------|----------------------9-(9)--|
D-----------------------------------------------------|-----------------------------|
A-----------------------------------------------------|-----------------------------|
E-----------------------------------------------------|-----------------------------|

e---7------7-------5/6---2--|--7--9-10-9-7-------------|------------------------10-12/13/12-10/12|
B-----10-7---10-7--6/7---3--|--------------7--(7)-5/7--|------------------10-12------------------|
G---------------------------|--4--6-7--6-4-------------|--4--6--7--9--11--------7--9/ 9----------|
D---------------------------|--------------4--(4)-2/4--|------------------7--9-------------------|
A---------------------------|--------------------------|--2--4--5--7--9--------------------------|
E---------------------------|--------------------------|-----------------------------------------|

e--14/17-14-12-7--12/14-12--|-12-10-12-10-12/14-14---14-12--14/15-10---12/14---9--|
B---------------------------|-----------------------------------------------------|
G--11/14-11-9--4--9/ 11-9---|-9---7-9--7--9/ 11-11---11-9---11/12-7----9/ 11---6--|
D---------------------------|-----------------------------------------------------|
A---------------------------|-----------------------------------------------------|
E---------------------------|-----------------------------------------------------|

SOLO CHORDS

G7         F#m7       Em7       A7
e|--10--|  e|--9---|  e|--7--|  e|--5--|
B|--12--|  B|--10--|  B|--8--|  B|--5--|
G|--10--|  G|--9---|  G|--7--|  G|--6--|
D|--12--|  D|--11--|  D|--9--|  D|--5--|
A|--10--|  A|--9---|  A|--7--|  A|--7--|
E|------|  E|------|  E|-----|  E|--5--|

Em6       G7        Em6       F#7
e|-----|  e|--3--|  e|-----|  e|--2--|
B|--5--|  B|--3--|  B|--5--|  B|--5--|
G|--4--|  G|--4--|  G|--4--|  G|--3--|
D|--5--|  D|--3--|  D|--5--|  D|--2--|
A|--4--|  A|--5--|  A|--4--|  A|--4--|
E|-----|  E|--3--|  E|-----|  E|--2--|

**************
G7         F#m7
  Alors ou est cache
Em7              A7
La fine creme du genre humain
Em6                 G7
Qui vote son Le Pen au mois de mai
Em6                F#7
Qui reve de Heider pour demain
G7          F#m7
Qui voudrait faire la peau
Em7              A7
A tous les grilleurs de priorite
Em6                 G7          Em6
Ou qui paye 100 euros pour voir la Dion
   F#7
Ou Hallyday bourre


Bm         G
A l'idee qu'on se fait
    Bm             A
Du monde et de ses aleas
   Bm               G
On est toujours le con de quelqu'un
Bm           A
Mais mon voisin le sait pas
Bm           G
Alors quand il hurle au silence
Bm          A
Je monte le son rien que pour lui
Bm            G
Vive les beaufs et vive la France
Bm           A
J'assume ma connerie meme la nuit

Bm - G - Bm - A

Bm                 A
C'est pas qu'on se sent differents
Bm            G
Ou bien qu'on juge la vie
Bm                          A
Mais qu'est-ce qu'on s'sent loin des gens
Bm                     G
Des qu'ils donnent tous ensemble leur avis
Bm               A
Mais nous c'est pas pareil
Bm              G
Son avis on le garde pour soi
Bm            A
Parait qu'on est tous un peu con
Bm             G
Des qu'on est un peu plus de trois.
Добавлено: 13.05.2012
Другие материалы по этой песне:

Страница создана 30.04.2012
http://primanota.ru/tryo/pas-pareil-chords.htm
Привет, Гость.
Предлагаем пройти революционный курс по гитаре.
Подарок от PrimaNota.Ru, забирай!