PrimaNota.ru - самый крупный в мире бесплатный архив песенных текстов, аккордов, табулатур и нот


TRUSTcompany - Slave - текст песни, таба, видео

Регистрация Запомнить меня
Войти через:  Facebook Google Twitter Vk Yandex Mail.ru

TRUSTcompany - Slave - текст песни, таба, видео

Печатать
Просмотров: 79
Band- Trustcompany
Song- Slave

Tuning (low to high) Db, Ab, Db, Gb, Bb, Eb

Intro: the heavy part not the soft intro
(guitar 1:clean) repeat 4x
E:---------------------------------------|
B:---------------------------------------|
G:---------------------------------------|
D:------------5--------------------------|
A:--7---7-7-7-7--------------------------|
D:5--5--5-5-5-5--------------------------|
(guitar 1:distorted)
E:---------------------------------------|
B:---------------------------------------|
G:---------------------------------------|
D:0-3-8-5--------------------------------|
A:0-3-8-5--------------------------------|
D:0-3-8-5--------------------------------|

(guitar 2:distorted) might be a little off but very close
E:--------------------------------------------------------------------|
B:--------------------------------------------------------------------|
G:---14----14--12--14-----14--12--14--17--14--17--14------------------|
D:12----12-------------12---------------------------------------------|
A:--------------------------------------------------------------------|
D:--------------------------------------------------------------------|

Verse
(guitar 2:clean) this might be a little off but it is very close
E:--------------------------------------------------------------------------------------|
B:--------------------------------------------------------------------------------------|
G:-14----14--12--9----14----14--9--9--10----14----14--12--9----14----14-9--10--17-------|
D:----12-----------------12--------------------12-----------------12--------------------|
A:--------------------------------------------------------------------------------------|
D:--------------------------------------------------------------------------------------|

Pre chorus
(guitar 1 & 2:distorted)
E:--------------------------------------------------------------------|
B:-------9-9-9-9-9-9-------------9-9-9-9-9-9--------------------------|
G:-------x-x-x-x-x-x-------------x-x-x-x-x-x--------------------------|
D:8-8-8--7-7-7-7-7-7------8-8-8--7-7-7-7-7-7---8-10-10-10-8-10-10-10--|
A:8-8-8-------------------8-8-8----------------8-10-10-10-8-10-10-10--|
D:8-8-8-------------------8-8-8----------------8-10-10-10-8-10-10-10--|

Chorus
(guitar 1:distorted)
E:--------------------------------------|
B:--------------------------------------|
G:--------------------------------------|
D:0-3-8-5-------------------------------|
A:0-3-8-5-------------------------------|
D:0-3-8-5-------------------------------|


(guitar 2:distorted) might be a little off but very close
E:----------------------------------------------------------------------|
B:----------------------------------------------------------------------|
G:---14-----14----14--17--14--------14-----14-----14--17--14------------|
D:12-----12----12----------------12-----12-----12-----------------------|
A:----------------------------------------------------------------------|
D:----------------------------------------------------------------------|

Verse
(guitar 2:clean)
E:--------------------------------------------------------------------------------------|
B:--------------------------------------------------------------------------------------|
G:-14----14--12--9----14----14--9--9--10----14----14--12--9----14----14-9--10--17-------|
D:----12-----------------12--------------------12-----------------12--------------------|
A:--------------------------------------------------------------------------------------|
D:--------------------------------------------------------------------------------------|


Pre chorus
(guitar 1 & 2:distorted)
E:-------------------------------------------------------------------------|
B:-------9-9-9-9-9-9-------------9-9-9-9-9-9-------------------------------|
G:-------x-x-x-x-x-x-------------x-x-x-x-x-x-------------------------------|
D:8-8-8--7-7-7-7-7-7------8-8-8--7-7-7-7-7-7---8-10-10-10-8-10-10-10-------|
A:8-8-8-------------------8-8-8----------------8-10-10-10-8-10-10-10-------|
D:8-8-8-------------------8-8-8----------------8-10-10-10-8-10-10-10-------|

Chorus
(guitar 1:distorted)
E:--------------------------------------|
B:--------------------------------------|
G:--------------------------------------|
D:0-3-8-5-------------------------------|
A:0-3-8-5-------------------------------|
D:0-3-8-5-------------------------------|


(guitar 2:distorted)
E:----------------------------------------------------------------------|
B:----------------------------------------------------------------------|
G:---14-----14----14--17--14------14-----14-----14--17--14--------------|
D:12-----12----12--------------12-----12-----12-------------------------|
A:----------------------------------------------------------------------|
D:----------------------------------------------------------------------|

Bridge
(guitar 1 & 2:distorted)
E:------------------------------------------------------------------------|
B:------------------------------------------------------------------------|
G:------------------------------------------------------------------------|
D:------------------------------------------------------------------------|
A:------------------------------------------------------------------------|
D:0-0---0-0---0-0---0-0---0-0---0-0----0-0-0--0-0-0--8-8-8--8-8-8---------|
 /-----------------P.M----------------------------------------------------|

(guitar 1 & 2:distorted)
E:-------------------------------------------------------------------|
B:-------------------------------------------------------------------|
G:-------------------------------------------------------------------|
D:0-0-0-8-0-10--0-0-0-8-0-10--8-8-8-8-0-10--8-8-8-8-0-10-------------|
A:0-0-0-8-0-10--0-0-0-8-0-10--8-8-8-8-0-10--8-8-8-8-0-10-------------|
D:0-0-0-8-0-10--0-0-0-8-0-10--8-8-8-8-0-10--8-8-8-8-0-10-------------|

(guitar 1 & 2:distorted)
E:-----------------------------------------------------------------------------------|
B:--------9-9-9-9-9-9-------------9-9-9-9-9-9----------------------------------------|
G:--------x-x-x-x-x-x-------------x-x-x-x-x-x----------------------------------------|
D: 8-8-8--7-7-7-7-7-7------8-8-8--7-7-7-7-7-7----------------------------------------|
A: 8-8-8-------------------8-8-8-----------------------------------------------------|
D: 8-8-8-------------------8-8-8-----------------------------------------------------|

Chorus
(guitar 1:distorted)
E:--------------------------------------|
B:--------------------------------------|
G:--------------------------------------|
D:0-3-8-5-------------------------------|
A:0-3-8-5-------------------------------|
D:0-3-8-5-------------------------------|


(guitar 2:distorted)
E:----------------------------------------------------------------------|
B:----------------------------------------------------------------------|
G:---14-----14----14--17--14--------14------14----14--17--14------------|
D:12-----12----12----------------12-----12-----12-----------------------|
A:----------------------------------------------------------------------|
D:----------------------------------------------------------------------|

(guitar 1 & 2:distorted)
E:--------------------------------------------------------------------------|
B:--------9-9-9-9-9-9-------------9-9-9-9-9-9-------------------------------|
G:--------x-x-x-x-x-x-------------x-x-x-x-x-x-------------------------------|
D: 8-8-8--7-7-7-7-7-7------8-8-8--7-7-7-7-7-7---8-10-10-10-8-10-10-10---0---|
A: 8-8-8-------------------8-8-8----------------8-10-10-10-8-10-10-10---0---|
D: 8-8-8-------------------8-8-8----------------8-10-10-10-8-10-10-10---0---|
(let the opens ring on the D,A, D strings)
Добавлено: 05.10.2013
Другие материалы по этой песне:
  • Аккорды и текст

Страница создана 27.04.2012
http://primanota.ru/trustcompany/slave-chords.htm
Привет, Гость.
Предлагаем пройти революционный курс по гитаре.
Подарок от PrimaNota.Ru, забирай!