PrimaNota.ru - самый крупный в мире бесплатный архив песенных текстов, аккордов, табулатур и нот


TRUSTcompany - Falling Apart - текст песни, таба, бас-таба, видео

Регистрация Запомнить меня
Войти через:  Facebook Google Twitter Vk Yandex Mail.ru

TRUSTcompany - Falling Apart - текст песни, таба, бас-таба, видео

Печатать
Просмотров: 101
Intro:
with a little bit of overdrive
eb|-----------------------|------------------------|
Bb|-----------------------|------------------------|
Gb|-----------------------|------------------------|
Db|-2-2-2-2-x----2-2-2-x--|-2-2-2-2-x----2-2-2-x---|
Ab|-2-2-2-2-x----2-2-2-x--|-2-2-2-2-x----2-2-2-x---|
Db|-2-2-2-2-x----2-2-2-x--|-2-2-2-2-x----2-2-2-x---|

add distortion
eb|-----------------------|------------------------|
Bb|-----------------------|------------------------|
Gb|-----------------------|------------------------|
Db|-2-2-2-2-x----2-2-2-x--|-2-2-2-2-x----2-2-2-x---|
Ab|-2-2-2-2-x----2-2-2-x--|-2-2-2-2-x----2-2-2-x---|
Db|-2-2-2-2-x----2-2-2-x--|-2-2-2-2-x----2-2-2-x---|
 pm . . . . .    . . . .    . . . . .    . . . .

then
eb|-------------------------------|
Bb|-------------------------------|
Gb|-------------------------------|
Db|-1p0-2p0-3p0-0-2p0-2p0-3p0-0-1-|
Ab|-1p0-2p0-3p0-0-2p0-2p0-3p0-0-1-|
Db|-1p0-2p0-3p0-0-2p0-2p0-3p0-0-1-| X4


Verse:
eb|------------------------|-------------------------|
Bb|------------------------|-------------------------|
Gb|------------------------|-------------------------|
Db|-2----2-2/10----10-0-2--|-2----2-2/10----10-0-0---|
Ab|-2----2-2/10----10-0-2--|-2----2-2/10----10-0-0---|
Db|-2----2-2/10----10-0-2--|-2----2-2/10----10-0-0---|


Pre-Chorus:
eb|------------------|--------------------------|
Bb|------------------|--------------------------|
Gb|------------------|--------------------------|
Db|-2-2-2-2-2-2-2-2/-|-10-10-10-10-10-10-10-10--|
Ab|-2-2-2-2-2-2-2-2/-|-10-10-10-10-10-10-10-10--|
Db|-2-2-2-2-2-2-2-2/-|-10-10-10-10-10-10-10-10--|


Chorus:
eb|-------------------------|-----------------|-----------------|
Bb|-------------------------|-----------------|-----------------|
Gb|-------------12-12-12-12-|---------2-2-2-2-|-----------------|
Db|-10-10-10-10-10-10-10-10-|-0-0-0-0-0-0-0-0-|-2-2-2-2-2-2-2-2-|
Ab|-10-10-10-10-10-10-10-10-|-0-0-0-0-0-0-0-0-|-2-2-2-2-2-2-2-2-|
Db|-10-10-10-10-10-10-10-10-|-0-0-0-0-0-0-0-0-|-2-2-2-2-2-2-2-2-|

eb|-----------------|
Bb|-----------------|
Gb|---------7-7-7-7-|
Db|-5-5-5-5-5-5-5-5-|
Ab|-5-5-5-5-5-5-5-5-|
Db|-5-5-5-5-5-5-5-5-| X2

then
eb|-------------------------|-------------------------|
Bb|-------------------------|-------------------------|
Gb|-------------------------|-------------------------|
Db|-10-10-10-10-10-10-10-10-|-12-12-12-12-12-12-12-12-|
Ab|-10-10-10-10-10-10-10-10-|-12-12-12-12-12-12-12-12-|
Db|-10-10-10-10-10-10-10-10-|-12-12-12-12-12-12-12-12-|


back to verse
eb|------------------------|-------------------------|
Bb|------------------------|-------------------------|
Gb|------------------------|-------------------------|
Db|-2----2-2/10----10-0-2--|-2----2-2/10----10-0-0---|
Ab|-2----2-2/10----10-0-2--|-2----2-2/10----10-0-0---|
Db|-2----2-2/10----10-0-2--|-2----2-2/10----10-0-0---|


then pre-chorus
eb|------------------|--------------------------|
Bb|------------------|--------------------------|
Gb|------------------|--------------------------|
Db|-2-2-2-2-2-2-2-2/-|-10-10-10-10-10-10-10-10--|
Ab|-2-2-2-2-2-2-2-2/-|-10-10-10-10-10-10-10-10--|
Db|-2-2-2-2-2-2-2-2/-|-10-10-10-10-10-10-10-10--|


Chorus:
eb|-------------------------|-----------------|-----------------|
Bb|-------------------------|-----------------|-----------------|
Gb|-------------12-12-12-12-|---------2-2-2-2-|-----------------|
Db|-10-10-10-10-10-10-10-10-|-0-0-0-0-0-0-0-0-|-2-2-2-2-2-2-2-2-|
Ab|-10-10-10-10-10-10-10-10-|-0-0-0-0-0-0-0-0-|-2-2-2-2-2-2-2-2-|
Db|-10-10-10-10-10-10-10-10-|-0-0-0-0-0-0-0-0-|-2-2-2-2-2-2-2-2-|

eb|-----------------|
Bb|-----------------|
Gb|---------7-7-7-7-|
Db|-5-5-5-5-5-5-5-5-|
Ab|-5-5-5-5-5-5-5-5-|
Db|-5-5-5-5-5-5-5-5-| X2

eb|-------------------------|-------------------------|
Bb|-------------------------|-------------------------|
Gb|-------------------------|-------------------------|
Db|-10-10-10-10-10-10-10-10-|-12-12-12-12-12-12-12-12-|
Ab|-10-10-10-10-10-10-10-10-|-12-12-12-12-12-12-12-12-|
Db|-10-10-10-10-10-10-10-10-|-12-12-12-12-12-12-12-12-|


Bridge:
eb|-----------------------|------------------------|
Bb|-----------------------|------------------------|
Gb|-----------------------|------------------------|
Db|-2-2-2-2-x----2-2-2-x--|-2-2-2-2-x----2-2-2-x---|
Ab|-2-2-2-2-x----2-2-2-x--|-2-2-2-2-x----2-2-2-x---|
Db|-2-2-2-2-x----2-2-2-x--|-2-2-2-2-x----2-2-2-x---|
 pm . . . . .    . . . .    . . . . .    . . . .


eb|-------------------------------|
Bb|-------------------------------|
Gb|-------------------------------|
Db|-1p0-2p0-3p0-0-2p0-2p0-3p0-0-1-|
Ab|-1p0-2p0-3p0-0-2p0-2p0-3p0-0-1-|
Db|-1p0-2p0-3p0-0-2p0-2p0-3p0-0-1-| X6


back to chorus 

eb|-------------------------|-----------------|-----------------|
Bb|-------------------------|-----------------|-----------------|
Gb|-------------12-12-12-12-|---------2-2-2-2-|-----------------|
Db|-10-10-10-10-10-10-10-10-|-0-0-0-0-0-0-0-0-|-2-2-2-2-2-2-2-2-|
Ab|-10-10-10-10-10-10-10-10-|-0-0-0-0-0-0-0-0-|-2-2-2-2-2-2-2-2-|
Db|-10-10-10-10-10-10-10-10-|-0-0-0-0-0-0-0-0-|-2-2-2-2-2-2-2-2-|

eb|-----------------|
Bb|-----------------|
Gb|---------7-7-7-7-|
Db|-5-5-5-5-5-5-5-5-|
Ab|-5-5-5-5-5-5-5-5-|
Db|-5-5-5-5-5-5-5-5-| X3

eb|-------------------------|-------------------------|
Bb|-------------------------|-------------------------|
Gb|-------------------------|-------------------------|
Db|-10-10-10-10-10-10-10-10-|-12-12-12-12-12-12-12-12-|
Ab|-10-10-10-10-10-10-10-10-|-12-12-12-12-12-12-12-12-|
Db|-10-10-10-10-10-10-10-10-|-12-12-12-12-12-12-12-12-|

eb|-------------------------|-------------------------|
Bb|-------------------------|-------------------------|
Gb|-------------------------|-------------------------|
Db|-12-12-12-12-12-12-12-12-|-12-12-12-12-12-12-12-12-|
Ab|-12-12-12-12-12-12-12-12-|-12-12-12-12-12-12-12-12-|
Db|-12-12-12-12-12-12-12-12-|-12-12-12-12-12-12-12-12-|

and end with
eb|------------|
Bb|------------|
Gb|------------|
Db|-2-2-2-2-x--|
Ab|-2-2-2-2-x--|
Db|-2-2-2-2-x--|
 pm . . . . . 
Добавлено: 15.07.2013
Другие материалы по этой песне:
  • Аккорды и текст

Страница создана 23.04.2012
http://primanota.ru/trustcompany/falling-apart-chords.htm
Привет, Гость.
Предлагаем пройти революционный курс по гитаре.
Подарок от PrimaNota.Ru, забирай!