PrimaNota.ru - самый крупный в мире бесплатный архив песенных текстов, аккордов, табулатур и нот


TRUSTcompany - Breaking Down - текст песни, таба, видео

Регистрация Запомнить меня
Войти через:  Facebook Google Twitter Vk Yandex Mail.ru

TRUSTcompany - Breaking Down - текст песни, таба, видео

Печатать
Просмотров: 93
Band- Trustcompany
Song- Breaking Down

Tuning: C,G,C,F,A,D (Low To High)

Key:
P.M. - Palm Mute
* - Harmonic
h.b. - Half Step Bend
/ - Slide


Intro - Guitar 1             (Repeat 3 Times)                                       Guitar 2
D|--------------------------------------------------------------------------|--------------------------|
A|--------------------------------------------------------------------------|--------------------------|
F|--------------------------------------------------------------------------|----10-10-10-10-10--------|
C|--------------------------------------------------------------------------|----10-10-10-10-10--------|
G|--------------------------------------------------------------------------|----8--8--8--8--8---------|
C|--0-5-5--0-5-5--0-5-5--0-5-5--0-5-5--0-5-5--------------------------------|--------------------------|
      * *    * *    * *    * *    * *    * *

Intro Pt 2 - Guitar 1
D|----------------------------------------------------------------------|----------------------------|
A|----------------------------------------------------------------------|----------------------------|
F|----------------------------------------------------------------------|----------------------------|
C|----------------------------------------------------------------------|-----8-8-8-8----------------|
G|----------------------------------------------------------------------|-----8-8-8-8----------------|
C|--0-5-5--0-5-5--0-5-5--0-5-5--0-5-5--0-5-5----------------------------|-----8-8-8-8----------------|
      * *    * *    * *    * *    * *    * *
					           Guitar 2
					         |----------------------------|
				                      |----------------------------|
					         |------9---------------------|
				                      |------9---------------------|
				                      |------7---------------------|
					         |----------------------------|
                                                                               h.b

Pre-Verse - Guitar 1 & 2
D|-----------------------------------------------------------------------|
A|-----------------------------------------------------------------------|
F|----------------9--------------9/10-10-10-10-10------------------------|
C|----------------9--------------9/10-10-10-10-10------------------------|
G|----------------7--------------7/8--8--8--8--8-------------------------|
C|-----0-0-0-0-------0-0-0-0---------------------------------------------|
P.M    -------  h.b  -------



D|-----------------------------------------------------------------|
A|-----------------------------------------------------------------|
F|-----------------9-----------------------------------------------|
C|-----------------9----------------8-8-8-8-8---5-5-5-5-5----------|
G|-----------------7----------------8-8-8-8-8---5-5-5-5-5----------|
C|-------0-0-0-0--------------------8-8-8-8-8---5-5-5-5-5----------|
P.M      -------  h.b   
 
Verse - Guitar 1     (Repeat 3 Times)           			Guitar 2
D|--------------------------------------------------------------------------|--------------------------|
A|--------------------------------------------------------------------------|--------------------------|
F|--------------------------------------------------------------------------|----10-10-10-10-10--------|
C|--------------------------------------------------------------------------|----10-10-10-10-10--------|
G|--------------------------------------------------------------------------|----8--8--8--8--8---------|
C|--0-5-5--0-5-5--0-5-5--0-5-5--0-5-5--0-5-5--------------------------------|--------------------------|
      * *    * *    * *    * *    * *    * *


    Guitar 1					          Guitar 1 & 2
D|----------------------------------------------------------------------|-------------------------------|
A|----------------------------------------------------------------------|-------------------------------|
F|----------------------------------------------------------------------|-------------------------------|
C|----------------------------------------------------------------------|-----8-8-8-8---5-5-5-5-5-------|
G|----------------------------------------------------------------------|-----8-8-8-8---5-5-5-5-5-------|
C|--0-5-5--0-5-5--0-5-5--0-5-5--0-5-5--0-5-5----------------------------|-----8-8-8-8---5-5-5-5-5-------|
      * *    * *    * *    * *    * *    * * 

Chorus  (Strum To Find Pattern)
D|---------------------------------------------------------------------------------------------------|
A|---------------------------------------------------------------------------------------------------|
F|---------------------------------------------------------------------------------------------------|
C|------------0----------3---------5-----------8--------10-------------------------------------------|
G|------------0----------3---------5-----------8--------10-------------------------------------------|
C|------------0----------3---------5-----------8--------10--------------------------------===--------|

Chorus Fill
D|--------------------10------------10-------------10------------------------------------------------|
A|----------------10-----10-----10-----10------10-----10---------------------------------------------|
F|--------------7-------------7--------------7------------7------------------------------------------|
C|---------------------------------------------------------------------------------------------------|
G|---------------------------------------------------------------------------------------------------|
C|---------------------------------------------------------------------------------------------------|




Bridge - Guitar 1  (Not 100% On This, But Play Around With It, Sounds Close)
D|--------------------------------------------------------------------------------------------------|
A|--------------------------------------------------------------------------------------------------|
F|-------------------------12-----------------------------------------------------------------------|
C|---8----3-----10----8----10-----------------------------------------------------------------------|
G|---8----3-----10----8----10-----------------------------------------------------------------------|
C|---8----3-----10----8----10-----------------------------------------------------------------------|

Bridge - Guitar 2                                        1.---------| 2.-----------------------------|
D|----------------------------------------------------|-------------|--------------------------------|
A|----------------------------------------------------|-------------|--------------------------------|
F|--------10-------9-------10------12--------10-------|--------9----|-----------12-------------------|
C|--------x--------x-------x-------x---------x--------|--------x----|-----------x--------------------|
G|--------8--------7-------8-------10--------8--------|--------7----|-----------10-------------------|
C|----------------------------------------------------|-------------|--------------------------------|
 (Play Once With The First Ending, Then Repeat And Play Second Ending)
 

Pre-Verse  Guitar 1 & 2
D|-----------------------------------------------------------------------|
A|-----------------------------------------------------------------------|
F|---------------9------------0-9/10-10-10-10-10-------------------------|
C|---------------9--------------9/10-10-10-10-10-------------------------|
G|---------------7--------------7/8--8--8--8--8--------------------------|
C|-----0-0-0-0-------0-0-0-0---------------------------------------------|
P.M    -------  h.b  -------

D|-----------------------------------------------------------------|
A|-----------------------------------------------------------------|
F|-----------------9-----------------------------------------------|
C|-----------------9----------------8-8-8-8-8---5-5-5-5-5----------|
G|-----------------7----------------8-8-8-8-8---5-5-5-5-5----------|
C|-------0-0-0-0--------------------8-8-8-8-8---5-5-5-5-5----------|
P.M      ------   h.b   
  
D|-----------------------------------------------------------------------|
A|-----------------------------------------------------------------------|
F|---------------9--------------9/10-10-10-10-10-------------------------|
C|---------------9--------------9/10-10-10-10-10-------------------------|
G|---------------7--------------7/8--8--8--8--8--------------------------|
C|-----0-0-0-0-------0-0-0-0---------------------------------------------|
P.M    -------  h.b  -------


Pre-Verse Variation 
D|----------------------------------------------------------------------|
A|----------------------------------------------------------------------|
F|----------------9-----------------10-10-10-10-10----------------------|
C|----------------9-----------------10-10-10-10-10----------------------|
G|----------------7-----------------8--8--8--8--8-----------------------|
C|------0-0-0-0-------0-0-0-0-------------------------------------------|
P.M.    -------  h.b  -------


Ending
D| ----------|
A|-----------|
F|-----------|
C|----0------|
G|----0------|
C|----0------|
Добавлено: 01.12.2013
Другие материалы по этой песне:
  • Аккорды и текст

Страница создана 10.06.2012
http://primanota.ru/trustcompany/breaking-down-chords.htm
Привет, Гость.
Предлагаем пройти революционный курс по гитаре.
Подарок от PrimaNota.Ru, забирай!