PrimaNota.ru - самый крупный в мире бесплатный архив песенных текстов, аккордов, табулатур и нот


Trust - Lelite - таба, видео

Регистрация Запомнить меня
Войти через:  Facebook Google Twitter Vk Yandex Mail.ru

Trust - Lelite - таба, видео

Печатать
Просмотров: 45
Авторы музыки: Norbert Krief
Авторы текста: Bernard Bonvoisin
Artist : TRUST
Song : L'Elite





E[----------------------------------------------------------------------------------------------|
B[----------------------------------------------------------------------------------------------|
G[----------------------------------------------------------------------------------------------|
D[--------------------5-0----------7--7---2------------------------5-0--------7--7---7----------|
A[--------------------------7------5--5---0-----------------------------7-----5--5---9----------|
E[-12s-3-----0-5-6-7-----------------------------12s-3-----0-5-6-7------------------------------|


B[----------------------------------------------------------------------------|
G[----------------------------------------------------------------------------|
D[------------5------7--------------------------------------------------------|
A[--0-2-3-----3------5--------------------------------------------------------|
E[----------------------------------------------------------------------------|


E[---------------------------------------------------------------------------------------------------|
B[---------------------------------------------------------------------------------------------------|
G[---------------------------------------------------------------------------------------------------|
D[---------------9-------9------9-9----------------------5-------5-------5-5-----7----7-7----9-------|
A[---------------7-------7------7-7-------5~~-7-5--------3-------3-------3-3-----5----5-5----7-------|
E[--12s-3---0-0-----0-0----0-0--------0-------------0-0-----0-0-----0-0-------0----------------------|




*Une fois que tu gères ça le reste vient tout seul... *
Добавлено: 04.12.2015
Другие материалы по этой песне:

Страница создана 28.06.2012
http://primanota.ru/trust/lelite-chords.htm
Привет, Гость.
Предлагаем пройти революционный курс по гитаре.
Подарок от PrimaNota.Ru, забирай!