PrimaNota.ru - самый крупный в мире бесплатный архив песенных текстов, аккордов, табулатур и нот


Trust But Verify - The Sleeper Must Awaken - таба, видео

Регистрация Запомнить меня
Войти через:  Facebook Google Twitter Vk Yandex Mail.ru

Trust But Verify - The Sleeper Must Awaken - таба, видео

Печатать
Просмотров: 59
Уроки эстрадного вокала в Санкт-Петербурге
-------------------------------------------------------------------------------
                    The Sleeper Must Awaken - Trust But Verify
-------------------------------------------------------------------------------
Tabbed by: Daniel Nocito
E-mail: apexebaby@gmail.com

https://www.facebook.com/trustbutverifyband

Tuning: EADGBE

e|---------3---------|----------5--------|0------------------|-------------------|
B|/5-----------------|/6-----------------|---------1---------|-------------------|
G|-------------------|-------------------|-------------------|-----------4-------|
D|-------------------|-------------------|-------------------|0h2----------------|
A|/3-----------------|/5-----------------|0------------------|-------------------|
E|-------------------|-------------------|-------------------|-------------------|


e|---------3---------|----------5--------|0------------------|-------------------|
B|/5-----------------|/6-----------------|---------1---------|1-/-3--5--1--------|
G|-------------------|-------------------|-------------------|2-/-4--5--2--------|
D|-------------------|-------------------|-------------------|-------------------|
A|/3-----------------|/5-----------------|0------------------|-------------------|
E|-------------------|-------------------|-------------------|-------------------|


e|---------3---------|----------5--------|0------------------|-------------------|
B|/5-----------------|/6-----------------|---------1---------|-------------------|
G|-------------------|-------------------|-------------------|-----------4-------|
D|-------------------|-------------------|-------------------|0h2----------------|
A|/3---------------3-|/5---------------5-|0------------------|-------------------|
E|-------------------|-------------------|-------------------|-------------------|


e|---------3---------|----------5--------|0------------------|-------------------|
B|/5-----------------|/6-----------------|---------1---------|1-/-3--5--1--------|
G|-------------------|-------------------|-------------------|2-/-4--5--2--------|
D|-------------------|-------------------|-------------------|-------------------|
A|/3---------------3-|/5---------------5-|0------------------|-------------------|
E|-------------------|-------------------|-------------------|-------------------|


e|0------------------|--0----------------|-------------------|-------------------|
B|-------------------|6------------------|-------------------|-------------------|
G|--0---5h7p5--5h7/9-|--------------4--4h|5------------------|-9h10p9------------|
D|----/7-----7-------|-------------------|-------------------|--------10---------|
A|3------------------|5------------------|0------------------|-----------12------|
E|-------------------|-------------------|-------------------|-------------------|


e|0------------------|--0----------------|-------------------|--------------10---|
B|-------------------|6-----------------9|10-----------------|12--------13-------|
G|--0---5h7p5--5h7/9-|-----------7h10p7--|-------------------|-------------------|
D|----/7-----7-------|----7h9h10-------9-|-------------------|-------------------|
A|3------------------|5------------------|0------------------|10--------8---10---|
E|-------------------|-------------------|-------------------|-------------------|


e|12-----------------|10--------------12-|12------12\\-------|-------------------|
B|-------------------|-------------------|-------------------|-------------------|
G|-----10p9----------|-----10------------|---------------9\\-|-------------------|
D|-----------10------|--------12---------|-------------------|7\\--3--3/6----2---|
A|-------------------|-------------------|0-------0------0---|0----0-------------|
E|8------------------|10-----------------|-------------------|-------------------|


e|0------------------|--0----------------|-------------------|-----------------------------------|
B|-------------------|6------------------|-------------------|----------------------------13-----|
G|--0---5h7p5--5h7/9-|----------7h10p7-10|9----9h10p9--------|-------9h10p9---9h10h12-/-14-------|
D|----/7-----7-------|---7h9h10-------9--|-----------10------|9h10h12------12--------------------|
A|3------------------|5------------------|0------------12----|-----------------------------------|
E|-------------------|-------------------|-------------------|-----------------------------------|


************************************

| /   slide up
| \   slide down
| h   hammer-on
| p   pull-off
| ~   vibrato
| +   harmonic
| x   Mute note
| b   Bend
| pb  Pre-bend
| br  Bend release
| pbr Pre-bend release
| brb Bend release bend

************************************
Добавлено: 14.08.2015
Другие материалы по этой песне:
  • Аккорды и текст

Страница создана 14.08.2015
http://primanota.ru/trust-but-verify/sleeper-must-awaken-chords.htm
Привет, Гость.
Предлагаем пройти революционный курс по гитаре.
Подарок от PrimaNota.Ru, забирай!