PrimaNota.ru - самый крупный в мире бесплатный архив песенных текстов, аккордов, табулатур и нот


Truly - Repulsion - таба, видео

Регистрация Запомнить меня
Войти через:  Facebook Google Twitter Vk Yandex Mail.ru

Truly - Repulsion - таба, видео

Печатать
Просмотров: 63
Song: Repulsion
Band: Truly
Album:Feeling You Up.

Tuning: Drop c# C#-a-d-g-b-e

INTRO

e |-------------------------------------------------------|
b |------------------7-5------------------------7-5-------|
g |----------------------6--------------------------6-----|
d |------------------------6--------------------------6---|
a |-------7---6---2------------------7---6---2------------|
C#|-0-0-7---0-7-0-3------------0-0-7---0-7-0-3------------|


VERSE- 1. Rhythm is easy to figure out.

Lightning strikes....

e |--4--|--4--|--2--|--0--|
b |--5--|--4--|--3--|--0--|
g |--6--|--4--|--2--|--1--|
d |--6--|--4--|--0--|--2--|
a |--4--|--2--|--2--|--0--|
C#|-(0)-|-----|-----|-----|

CHORUS- 1. Lights Down...

e |-------------------------------------------------------|
b |------------------7-5------------------------7-5-------|
g |----------------------6--------------------------6-----|
d |------------------------6--------------------------6---|
a |-------7---6---2------------------7---6---2------------|
C#|-0-0-7---0-7-0-3------------0-0-7---0-7-0-3------------|

Verse-2. My heart....

e |--4--|--4--|--2--|--0--|
b |--5--|--4--|--3--|--0--|
g |--6--|--4--|--2--|--1--|
d |--6--|--4--|--0--|--2--|
a |--4--|--2--|--2--|--0--|
C#|-(0)-|-----|-----|-----|

CHORUS- 2. Lights Down...

e |-------------------------------------------------------|
b |------------------7-5------------------------7-5-------|
g |----------------------6--------------------------6-----|
d |------------------------6--------------------------6---|
a |-------7---6---2------------------7---6---2------------|
C#|-0-0-7---0-7-0-3------------0-0-7---0-7-0-3------------|

Break after second Chorus
   ^---------------------------------------------              ^

e |--7--7--7--7--7--9--9--9--9--9--7--7--7--7--7-------------------|
b |--10-10-10-10-10-12-12-12-12-12-10-10-10-10-10------------------|
g |------------------------------------------------9-11-9----9-11--|
d |-------------------------------------------------------11-------| X2
a |----------------------------------------------------------------|
C#|----------------------------------------------------------------|

Verse 3. Some Picking variations.

When I had enough....
e |--4--|--4--|--2--|--0--|
b |--5--|--4--|--3--|--0--|
g |--6--|--4--|--2--|--1--|
d |--6--|--4--|--0--|--2--|
a |--4--|--2--|--2--|--0--|
C#|-(0)-|-----|-----|-----|


Chorus 3. Lights Down

e |-------------------------------------------------------|
b |------------------7-5------------------------7-5-------|
g |----------------------6--------------------------6-----|
d |------------------------6--------------------------6---|
a |-------7---6---2------------------7---6---2------------|
C#|-0-0-7---0-7-0-3------------0-0-7---0-7-0-3------------|


Outtro- With some variations.

e |--4--|--4--|--2--|--0--|
b |--5--|--4--|--3--|--0--|
g |--6--|--4--|--2--|--1--|
d |--6--|--4--|--0--|--2--|
a |--4--|--2--|--2--|--0--|
C#|-(0)-|-----|-----|-----|


Legend:
^: Bend note.       
Добавлено: 11.11.2013
Вам также может быть интересно:
Другие материалы по этой песне:
  • Аккорды и текст

Страница создана 11.11.2013
http://primanota.ru/truly/repulsion-chords.htm
Привет, Гость.
Предлагаем пройти революционный курс по гитаре.
Подарок от PrimaNota.Ru, забирай!