PrimaNota.ru - самый крупный в мире бесплатный архив песенных текстов, аккордов, табулатур и нот


True Faith - Huwag Na Lang Kaya - аккорды и текст, таба, видео

Регистрация Запомнить меня
Войти через:  Facebook Google Twitter Vk Yandex Mail.ru

True Faith - Huwag Na Lang Kaya - аккорды и текст, таба, видео

Печатать
Просмотров: 82
Авторы музыки: Eugene Marfil
Авторы текста: Medwin Marfil
Huwag Na Lang Kaya
True Faith
-----------------------------------------------------------------------------
                         SONG NAME - Huwag Na Lang Kaya 
-----------------------------------------------------------------------------

Tabbed by:George Uson
Email:george_uson@yahoo.com

Tuning:Standard

Intro: /E./F#./A, AM7-Bm7-C#m7-Bm7-A#M7
       

                E. F# .A
(low E string) e|-0-2-5-|


AM7        Bm7        C#m7     Bm7-A#M7
   Nais ko ay  magpakilala sa iyo
AM7        Bm7         C#m7       Em7  A7(9)
   At ipahiwatig ang nilalaman ng puso ko
DM7          C#m7
   Maunawaan mo   kaya
       DM7                      C#m7
   O baka  sampalin mo lang ang aking  mukha
      Bm7             E7sus, E7 hold
   Nagdadal'wang isip na...

Chorus
(Intro chords)
   Huwag na lang kaya
   Huwag na lang kaya?

/E./F#./A, AM7       Bm7  C#m7     Bm7-A#M7
             Nais ko ay  ialay sa iyo
/E./F#./A, AM7        Bm7       C#m7     Em7-A7(9)
             Ang puso ko  na umiibig sa iyo
                    DM7               C#m7
             Ngunit di  mo na yata kailangan ng ganyan
          DM7                     C#m7
             Meron ka na yatang kasintahan
               Bm7           E7sus, E7 hold
             Naninikip ang tiyan...

Repeat Chorus

Ad lib: /E./F#./A, AM7-Bm7-C#m7-Bm7-A#M7
        /E./F#./A, AM7-Bm7-C#m7-Em7-A7(9)

solo (electric guitar)
e|----------------------------------------------------------------|
B|---------------------------7-6----------------------------------|
G|---------------3-3-4-4h6---------6h7-7-9-9s6s5-6h7-7-9----------|
D|---------3-4-6--------------------------------------------------|
A|-4-4-4h6--------------------------------------------------------|
E|----------------------------------------------------------------|

e|-------------------4-5-7----------------------------------------|
B|-----------5-7-5-7----------------------------------------------|
G|-7-7-7--9-------------------------------------------------------|
D|----------------------------------------------------------------|
A|----------------------------------------------------------------|
E|----------------------------------------------------------------|


Repeat last 3 lines of 2nd verse
Repeat Chorus

Coda
/E./F#./A, AM7      DM7
             Wag na lang
                            /E./F#./A,
             (Wag na lang kaya)?
Repeat
           AM7      DM7
             Wag na lang
                            /E./F#./A, AM7-DM7-DM7 hold
             (Wag na lang kaya)
                 AM9
             Ooh.
Добавлено: 07.02.2016
Другие материалы по этой песне:
  • Аккорды и текст

Страница создана 13.08.2013
http://primanota.ru/true-faith/huwag-na-lang-kaya-chords.htm
Привет, Гость.
Предлагаем пройти революционный курс по гитаре.
Подарок от PrimaNota.Ru, забирай!