PrimaNota.ru - самый крупный в мире бесплатный архив песенных текстов, аккордов, табулатур и нот


Truckfighters - Momentum - таба, видео

Регистрация Запомнить меня
Войти через:  Facebook Google Twitter Vk Yandex Mail.ru

Truckfighters - Momentum - таба, видео

Печатать
Просмотров: 58
Авторы: Truckfighters

-------------------------------------------------------------------------------
                             Momentum - Truckfighters (Lead Opening)
-------------------------------------------------------------------------------
Tabbed by: quikslvr223
E-mail: quikslvr223@gmail.com

Tuning: C# Standard (low to high C#, F#, B, E, G#, C#)

This is just for the clean lead played during some parts of the song.
It appears to be in the B major scale.

If you're in standard, move everything 3 frets down, closer to the nut.

c#|------------------------------------------------------|
G#|------------------------------------------------------|
E |-----------------------------------16----16~----------|
B |-x-x-17-16-17~--x-x-19-17-19~--x-x----19--------------|
F#|------------------------------------------------19----|
C#|---------------------------------------------------17-|

c#|-------------------------------------------------------|
G#|-------------------------------------------------------|
E |-------------------------------------------------------|
B |-x-x-17-16-17~--x-x-16-----16~--x-x--------------------|
F#|------------------------19----------17-16-17~----19----|
C#|----------------------------------------------------17-|

There are lots of variations, most notably these two.

c#|----------------------------------------------------------------------17h19-19--19-17-------|
G#|-------------------------------------17----------------------19-17h19-----------------19-17-|
E |--------------19------------------------------------16----16--------------------------------|
B |-x-x-17-16-17----17-16--x-x-19-17-19----19-17--x-x-----19-----------------------------------|
F#|--------------------------------------------------------------------------------------------|
C#|--------------------------------------------------------------------------------------------|

c#|-------------------------------------------------|
G#|-------------------------------------------------|
E |-------------------------------------------------|
B |-x-x-17-16-17-19~--x-x-16----16--------------16~-|
F#|--------------------------19----0---14-13-14-----|
C#|-------------------------------------------------|

There are even variations on these variations.

The rest is in the same scale, and should be very easy to figure out.

************************************

| h   hammer-on
| p   pull-off
| ~   vibrato
| x   Mute note

************************************
Добавлено: 16.12.2015
Вам также может быть интересно:
Другие материалы по этой песне:
  • Аккорды и текст

Страница создана 16.12.2015
http://primanota.ru/truckfighters/momentum-chords.htm
Привет, Гость.
Предлагаем пройти революционный курс по гитаре.
Подарок от PrimaNota.Ru, забирай!