PrimaNota.ru - самый крупный в мире бесплатный архив песенных текстов, аккордов, табулатур и нот


Trouble - Touch The Sky - таба, видео

Регистрация Запомнить меня
Войти через:  Facebook Google Twitter Vk Yandex Mail.ru

Trouble - Touch The Sky - таба, видео

Печатать
Просмотров: 73
		   Author/Artist: Trouble
Title: Touch the Sky
Album: Maniac Frustration
Transcribed by: Tim Worth
Email: tworth878@yahoo.com

12/99

Tuned down 1 step

Haven't figured all lead breaks. Go back to verse
after solos.

-----------------------|------------------------------------------------------
-----------------------|------------------------------------------------------
-----------------------|------------------------------------------------------
----2-2p0--------------|-----------------012----------------------------------
----------2----0--0h1b-|-----000-111-222--------------------------------------
--0----------3---------|-333--------------------------------------------------
                                                      
                       

-------12------------------|-----------|--------------------------------------
-------12------------------|-----------|--------------------------------------
-------12----------------2-|-----------|--------------------------------------
-----------3-3-3--5-5-5--2-|-----0---2-|--9--8-7------------------------------
-----------3-3-3--5-5-5--0-|-0-2---2---|--------------------------------------
-0--0------1-1-1--3-3-3----|-----------|--------------------------------------
 Verse                                                
                       

-----------------------------------|-----|-----|------------------------------
-----------------------------------|-----|-----|------------------------------
-------------------------2---------|-0-2-|-2-0-|------------------------------
----2-2p0----------------2---------|-0-2-|-2-0-|------------------------------
----------2----0-1--0000-0-000000--|---0-|-0---|-2-1-0------------------------
--0---------3----------------------|-----|-----|-------3----------------------
 Chorus                                               
                       

------------------------------------------------------------------------------
------------------------------------------------------------------------------
------------------------------------------------16-17-19-21-------------------
--14---16-17-19-21-17-19--16b1716--14--16-17-19-------------------------------
------------------------------------------------------------------------------
------------------------------------------------------------------------------
 Lead Middle Section - Moderate                       
                       

-------------------|---------------------------------12-----------------------
-------------------|---11p10p8-8-11p10p8---11p10p8----------------------------
-------------------|----------8----------8---------8--------------------------
----2-2p0----------|----------------------------------------------------------
----------2----0h1b|----------------------------------------------------------
--0----------3-----|----------------------------------------------------------
                       Lead Break 1                   
                       

-17-15------------------------------------------------------------------------
-------17tr18-----------------------------------------------------------------
------------------------------------------------------------------------------
------------------------------------------------------------------------------
------------------------------------------------------------------------------
------------------------------------------------------------------------------
 Lead Break 2                                         
     
Добавлено: 24.09.2013
Другие материалы по этой песне:
  • Аккорды и текст

Страница создана 24.09.2013
http://primanota.ru/trouble/touch-the-sky-chords.htm
Привет, Гость.
Предлагаем пройти революционный курс по гитаре.
Подарок от PrimaNota.Ru, забирай!