PrimaNota.ru - самый крупный в мире бесплатный архив песенных текстов, аккордов, табулатур и нот


Trouble - R.I.P. - текст песни, таба, видео

Регистрация Запомнить меня
Войти через:  Facebook Google Twitter Vk Yandex Mail.ru

Trouble - R.I.P. - текст песни, таба, видео

Печатать
Просмотров: 99
This is my own work

12/99
Tim Worth
Author/Artist: Trouble
Title: RIP
Tuned down

-------------|--------------|---------0----------|--0-----0-----0-------------
-------------|--------------|----------0---------|----0-----0----0------------
-------------|--------------|-----------3--------|------3-----3---3-----------
-2--2--2-----|---0---2-1-0--|--0-2-0-------------|----------------------------
-2--2--2-----|-2---2--------|--------1----1h2----|----------------------------
-0--0--0-----|--------------|--------------------|----------------------------
 intro A      fills after intro A                    
Last time open picking      

------------------------------------------------------------------------------
------------------------------------------------------------------------------
------------------------------------------------------------------------------
-\--2---------------------------------------2---------------------------------
-\--2----------------------------2-1---0----2---------------------------------
----0--00000000-00000000-0000000-----3---3--0---0000000-----------------------
 Verse Beginning                    ?                 
                       

--------------|----------------|----------------------------------------------
--------------|----------------|----------------------------------------------
--------------|----------7-9---|-------------0--------------------------------
--------------|---7-9-10-----9-|---------------5--7--2------------------------
--------------|10--------------|-------2-1-----5--7--2------------------------
-00000000000--|----------------|000000-----3---3--5--0------------------------
 "Looking thru                 |       fill           
                       

--------------|----------------|----------------------------------------------
--------------|----------------|----------------------------------------------
--------------|----------7-9---|----------------------------------------------
--------------|-------10-----9-|----------------------------------------------
--------------|----------------|-------2-1------------------------------------
-0000000000---|----------------|000000-----3-5b3------------------------------
 "Casement  open to the skies                         
                       

--------------------------------12--------------------------------------------
--------------------------------11--------------------------------------------
--------------------------------3---------------------------------------------
-3----5--7--/8---3-----2--------------2-----------------3----5--7--/8-8-------
-3----5--7--/8---3-----2----------1-0-2------2-1--------3----5--7--/8-8-------
-1----3--5--/6---1-----0-0000000------0-00000----3-5b3--1----3--5--/6-6-------
 "Rosemary. . . .insane"         *                    
 doubled by root note  

* different note each time around

-x----------------|-x---------------------------------------------------------
-x----------------|-x--5----------8-------------------------------------------
-x-9--------0-----|-x--4------------------------------------------------------
-2-9-2--1-0-------|-2--2----9-8-7---7-5---------------------------------------
-2-7----------1-2-|-2--2------------------------------------------------------
-0----------------|-0---------------------------------------------------------
 Chorus3X                 break?                      
                       

------------------------------------------------------------------------------
------------------------------------------------------------------------------
---------------3-222222222222-7-----------------------------------------------
-2222222222222-3-222222222222-7-----------------------------------------------
-2222222222222-1-000000000000-5-----------------------------------------------
-0000000000000----------------------------------------------------------------
                                                      
                       

------------------------------------------------------------------------------
------------------------------------------------------------------------------
-------7--------5-----------4-------3-----------------------------------------
-77777-7--55555-5-----44444-4--3333-3-----------------------------------------
-77777-5--55555-3-----44444-2--3333-1-----------------------------------------
-55555----33333-------22222----1111-------------------------------------------
     
Добавлено: 07.07.2013
Вам также может быть интересно:
Другие материалы по этой песне:
  • Аккорды и текст

Страница создана 22.06.2012
http://primanota.ru/trouble/rip-chords.htm
Привет, Гость.
Предлагаем пройти революционный курс по гитаре.
Подарок от PrimaNota.Ru, забирай!