PrimaNota.ru - самый крупный в мире бесплатный архив песенных текстов, аккордов, табулатур и нот


Trouble - Pray For The Dead - текст песни, таба, видео

Регистрация Запомнить меня
Войти через:  Facebook Google Twitter Vk Yandex Mail.ru

Trouble - Pray For The Dead - текст песни, таба, видео

Печатать
Просмотров: 161
Уроки эстрадного вокала в Санкт-Петербурге
email: portablemadness@comcast.net

Killer early doom, sludge, Black Sabbath-esqe riffs with christian lyrics....ironic huh?

Tune full step down: D G C F A D


Riff 1 (intro):

|---------------------------|
|---------------------------|
|--3--3--3--3---------------|
|--3--3--3--3---------------|
|--1--1--1--1--2--2--2--2---|
|--------------0--0--0--0---|

Riff 2:

|------------------------------------------|
|------------------------------------------|
|-------9---8------6--7---7b(7)--6---------|
|---------------9--------------------------|
|--/7--------------------------------------|
|------------------------------------------|

Riff 3:

|---------------------------------------------------|
|---------------------------------------------------|
|---------3--3------9--9------3--3------------------|
|--2------3--3------9--9------3--3------------------|
|--2------1--1------7--7------1--1--\8--------------|
|--0----X---------X---------X-----------10--6-------|

Cont.
|-----------------------------------------------|
|-----------------------------------------------|
|---------3--3------9--9------------------------|
|--2------3--3------9--9---10/-- 8--9-----------|
|--2------1--1------7--7---10/-- 8--9-----------|
|--0----X---------X--------12/-- 6--7-----------|

Riff 4:

|---------------------------------------|
|---------------------------------------|
|----------14--14--- 10-10---10-10------|
|--7--7----14--14--- 10-10---10-10------|
|--7--7----12--12----8--8----8--8-------|
|--5--5---------------------------------|

|----------------------------------------------|
|----------------------------------------------|
|----------14--14--- 10-10---10-10--- 14-14----|
|--7--7----14--14--- 10-10---10-10--- 14-14----|
|--7--7----12--12----8--8----8--8----12-12-----|
|--5--5----------------------------------------|

Riff 5:

|----------------------------------------|
|----------------------------------------|
|----------------------------------------|
|----------3-3-3-3-----------------------|
|----------1-1-1-1-5-5-5-5--1-2-1--------|
|--0-0-0-0---------3-3-3-3--------2------|

|------------------------------------------|
|------------------------------------------|
|------------------------------------------|
|----------3-3-3-3-------------------------|
|----------1-1-1-1-5-5-5-5--5-5-5h6p5------|
|--0-0-0-0---------3-3-3-3------------3----|

|-------------------------------------------|
|-------------------------------------------|
|-------------------------------------------|
|----------3-3-3-3----------7-5--5----------|
|----------1-1-1-1-5-5-5-5------7--7-5-7----|
|--0-0-0-0---------3-3-3-3------------------|

Riff 6:

|-------------------------------------------|
|-------------------------------------------|
|--------------------------------------14---|
|--0-7-6-5--------0-7-6-5-----5-6------14---|
|--------------------------------------12---|
|-------------------------------------------|

|---------------------------------------------|
|---------------------------------------------|
|----------------------------------------14---|
|--0-7-6-5--------0-7-6-5-----5-6---14-0-14---|
|-----------------------------------14-0-12---|
|-----------------------------------12--------|

Riff 7 (solo):

|-------------------------------------------------------------------|
|-------------------------------------------------------------------|
|-------------------------------------------------------------------|
|--6-----------7---6------------------------------------------------|
|--6--6-6-6-6--5---6--6-6-6-6-6-6---7--7-7-7-7--7-7-7-7--7-7-7-7----|
|--4--4-4-4-4------4--4-4-4-4-4-4---5--5-5-5-5--5-5-5-5--5-5-5-5----|

cont.
|---------------|
|---------------|
|---------------|
|-7-7-7-7--7----|
|-7-7-7-7--5----|
|-5-5-5-5-------|

Riff 8:

|--------------------------------------------------------|
|--------------------------------------------------------|
|--8-----------------------------------------------------|
|--8---- 10 ----7----4-------------------3---------------|
|--6---- 10 ----7----4-------------------1----5----2-----|
|--------8------5----2-----0-3-2-0-3-2-0------3----0-----|


|---------------------------------|
|---------------------------------|
|---------------------------------|
|--6--6--6--6--------6--6---------|
|--4--4--4--4--5-----4--4--5------|
|--------------3-----------3------|
Добавлено: 21.03.2012
Другие материалы по этой песне:
  • Аккорды и текст

Страница создана 21.03.2012
http://primanota.ru/trouble/pray-for-the-dead-chords.htm
Привет, Гость.
Предлагаем пройти революционный курс по гитаре.
Подарок от PrimaNota.Ru, забирай!