PrimaNota.ru - самый крупный в мире бесплатный архив песенных текстов, аккордов, табулатур и нот


Trouble - End Of My Daze - таба, видео

Регистрация Запомнить меня
Войти через:  Facebook Google Twitter Vk Yandex Mail.ru

Trouble - End Of My Daze - таба, видео

Печатать
Просмотров: 125
Уроки эстрадного вокала в Санкт-Петербурге
Subject: TAB: Trouble, "End of My Daze"

Don't know how many Trouble fans read this newsgroup, but here's one way
to find out. If anyone has anymore, post it here (I have more to follow,
keep your eyes peeled)

Notes:
1. Time Values: I have tried my best to notate time values as well as
notes. The letters above the staff indicate note values for notes
DIRECTLY below.
w=whole note
h=half note
e=eighth note
s=sixteenth note
dots immediately after a note value work just as they do in a regular staff.
ties over bar lines are notated thus:  x----(x)
                                  -------|------
Time signature and other notes (swing feel, triplets, etc.) will be noted
at the beginning of the tune and where they change.
This is not exact, so refer to the recording to accurately play song.

2. Solos: I am sorry that I am not quite good enough to figure out many
solos, but if I can, they are included. Other posters are encouraged to
append solos if they know them.

Here goes:

The End Of My Daze
by Trouble
originally recorded on the album "Trouble" (1989), American Records
Words and Music by Wagner, Franklin, Wartell.

Tune guitars down 1/2 step.
Rhythm in 4/4, triplet feel.

Intro
   e    e h.   e   e e    e q  q   e   e h.   e   e e e   q   q  e
-----|-----------|-------------------|----------|------------------|
-----|-----------|-------------------|----------|------------------|
-----|-----------|-------------------|----------|------------------|
---0-|-/5-2----0-|-2-0---------------|----------|-------------0--0-|
-----|-----------|--------1-0--------|----------|-----0---1--------|
-----|-----------|-------------3---0-|-3-0----0-|-0-3--------------|

   e h.   e   e e e q  q    e   e h.    e   e e e q    q.--(h.+e) e
------------|-----------------|-----------|---------------|---------|
------------|-----------------|-----------|---------------|---------|
------------|-----------------|-----------|---------------|---------|
--/5-2----0-|-2-0-------------|-----------|-2-0--------5--|-(5)-----|
------------|-----1-0---------|-----------|-----1-0----5--|-(5)-----|
------------|----------3----0-|-3-0-----0-|------------3--|-(3)---0-|

Verse
  e  e e e e e e e   e e e e e e e e   e  e e e e e e e   e e e e s q..
-------------------|-----------------|------------------|--------------|
-------------------|-----------------|------------------|--------------|
-------------------|-----------------|------------------|--------------|
--3----------------|-----------------|-3----------------|-----------5--|
--3----------------|-----------------|-3----------------|-----------5--|
--1--0-0-0-0-0-0-0-|-0-0-0-0-0-0-0-0-|-1--0-0-0-0-0-0-0-|-0-0-0-0-0-3--|


  e  e e e e e e e   e e e e e e e e   e  e e e e e e e   e e e q  q.
-------------------|-----------------|------------------|--------------|
-------------------|-----------------|------------------|--------------|
-------------------|-----------------|------------------|--------------|
--3----------------|-----------------|-3----------------|-2-0------5---|
--3----------------|-----------------|-3----------------|-----1-0--5---|
--1--0-0-0-0-0-0-0-|-0-0-0-0-0-0-0-0-|-1--0-0-0-0-0-0-0-|----------3---|

Bridge
  w        h   h       w       q. q.  q
------|------------|-------|--------------|
------|------------|-------|--------------|
--2---|------------|---2---|---5--4-------|
--2---|----5---3---|---2---|---5--4-------|
--0---|----5---3---|---0---|---3--2-------|
------|----3---1---|-------|----------3---|

Chorus (four times for one full chorus)
   e e   e q   e  e e---(q)  e  e q  q        --(h.+e)    e
----------------------|-------------------|  |--------------|--|
----------------------|-------------------|  |--------------|--|
----------------------|-------------------|  |--------------|--| back
---2----/9-7----------|-------------------|  |--(3)---------|--| to
---2----/7-5-----/9-8-|-(8)----/7-5--3----|  |--(3)---------|--| verse
---0-0---------0-/7-6-|-(6)--0-/5-3--1----|  |--(1)-------0-|--|
                                               This bar connects chorus
                                               back to 1st & 2nd verses.
Structure:
Intro
Verse 1
Bridge
Chorus (+connecting bar)
Verse 2
Bridge
Chorus (+connecting bar)
Guitar solo:
	Verse riff
	bridge
	Chorus (no conn. bar)
Verse 3
Bridge
Chorus (2X, conn. bar only after 2nd time, end song F5 - E5)

Lyrics:
A stranger he's so lonely, because we can't see
Where the quiet winds live, Streets where all of the old folks give
So much, so much love

At the End of My Daze
It's time to change my wayz
At the End of My Daze

Electric green machine, do you know what I mean
If you're so full of fear, why are you living here?
You are, you are here

Chorus
Guitar solos

Alone in the universe, it seems our lives are cursed
See where eyes cannot follow, and believe that it is tomorrow
It's here, it's here now

Chorus
Vocal ad lib to end.
----
M C Vic - slave to vi
gs01mcv@panther.gsu.edu
"Groovy."
Добавлено: 07.07.2012
Другие материалы по этой песне:
  • Аккорды и текст

Страница создана 07.07.2012
http://primanota.ru/trouble/end-of-my-daze-chords.htm
Привет, Гость.
Предлагаем пройти революционный курс по гитаре.
Подарок от PrimaNota.Ru, забирай!