PrimaNota.ru - самый крупный в мире бесплатный архив песенных текстов, аккордов, табулатур и нот


Trouble In Tokyo - Take Over You - таба, видео

Регистрация Запомнить меня
Войти через:  Facebook Google Twitter Vk Yandex Mail.ru

Trouble In Tokyo - Take Over You - таба, видео

Печатать
Просмотров: 81
Take Over You
Key Em
EADGBE

Main Riff/Chorus
                                 PM-----------------|        End Of Song                       
|---------------------------------------------------------|   |-----|
|---------------------------------------------------------|   |-----|
|---------------------------------------------------------|   |-----|
|------7/9--9-9--5-5--4-4---------------------------------|   |-----|
|--2---5/7--7-7--3-3--2-2---5/7--7-7-7-7-7--5-5-5-5-5--7-5|   |--2--|
|--0------------------------3/5--5-5-5-5-5--3-3-3-3-3--5-3|   |--0--|


VERSE
   PM---|     PM---|     PM---|    PM------|
|----------------------------------------------|
|----------------------------------------------|
|----------------------------------------------| 
|--------------------5-------------2-2-2-2-2---|
|---------2---3--3-3-3----------5--0-0-0-0-0---|
|--0--0-0-0--------------3--3-3-3-------------3|


PRE CHORUS
             PM----|
|---------------------------------------------------------|
|---------------------------------------------------------|
|---------------------------------------------------------|
|-----5---------------------------------------------------|
|--2--3--5---7-7-7-7--7-5---------------------------------|
|--0-----3---5-5-5-5--5-3---------------------------------|

BRIDGE
                                       PM--------------------|                                             
|------------------------------------------------------------------------|
|------------------------------------------------------------------------|
|------------------------------------------------------------------------|
|------------------4-5-7-9-7-5-4-----------------------------------------|
|--2--5--2--5---/7---------------3--2--4-4-4-4-4-4-4-4-4-4-4-4--5/4------|
|--0--3--0--3--------------------1--0--2-2-2-2-2-2-2-2-2-2-2-2--3/2------|

Arrangement:
Main            x4
Verse           x4
Pre Chorus      x2
Chorus          x4
Verse           x4
Pre Chorus      x2
Chorus          x4
Bridge          x1
Main            x4
Chorus          x4
Добавлено: 02.01.2016
Вам также может быть интересно:
Другие материалы по этой песне:
  • Аккорды и текст

Страница создана 02.01.2016
http://primanota.ru/trouble-in-tokyo/take-over-you-chords.htm
Привет, Гость.
Предлагаем пройти революционный курс по гитаре.
Подарок от PrimaNota.Ru, забирай!