PrimaNota.ru - самый крупный в мире бесплатный архив песенных текстов, аккордов, табулатур и нот


Trouble In Tokyo - Let It Die - таба, видео

Регистрация Запомнить меня
Войти через:  Facebook Google Twitter Vk Yandex Mail.ru

Trouble In Tokyo - Let It Die - таба, видео

Печатать
Просмотров: 67
Let It Die
Key of Em
EADGBE


Main
            PM                       PM---------------------|
|---------------------------|      |----------------------------------|
|---------------------------|      |----------------------------------|
|---------------------------|      |----------------------------------|
|------5-5------4-4--4p5p4--| x3   |-5-5-5-5-5-5-5-5--7-7-7-7---------|
|------7-7------5-5--------5|      |-3-3-3-3-3-3-3-3--5-5-5-5--2-0----|
|-0-0-------0---------------|      |-3-3-3-3-3-3-3-3--5-5-5-5------3-2|


Verse
           (Figure 1)
   PM--------------------|      PM---------------|
|----------------------------|-------------------------------|
|----------------------------|-------------------------------|
|----------------------------|-------------------------------|
|----------------------------|-------------------------------|
|--------------------------3-|------------------------------7|
|--0-0--0-0--0-0--0-0--0-0-1-|--0-0--0-0--0-0--0-0---7--10---|

   PM--------------------|     PM---------------|
|-------------------------------------------------------------------|
|-------------------------------------------------------------------|
|-------------------------------------------------------------------|
|-------------------------------------------------------------------|
|--------------------------3----------------------------8--11-------|
|--0-0--0-0--0-0--0-0--0-0-1---0-0--0-0--0-0--0-0---10--------------|

   PM--------------------|     PM---------------|
|-------------------------------------------------------------------|
|-------------------------------------------------------------------|
|-------------------------------------------------------------------|
|----------------------------------------------------------8--------|
|--------------------------3-------------------------------7--------|
|--0-0--0-0--0-0--0-0--0-0-1---0-0--0-0--0-0--0-0---7--10-----------|

   PM--------------------|     PM---------------|
|---------------------------------------------------x-x-x-x---------|
|---------------------------------------------------x-x-x-x---------|
|---------------------------------------------------x-x-x-x---------|
|---------------------------------------------------x-x-x-x---------|
|--------------------------3------------------------x-x-x-x---------|
|--0-0--0-0--0-0--0-0--0-0-1---0-0--0-0--0-0--0-0---x-x-x-x---------|

                        VERSE 2 
                              (Figure 2)
                         PM---------------|     
Replace the first     |----------------------|
Part of verse 2       |----------------------|
With this figure      |----------------------|
And then follow       |----------------------|
The figure above.     |----------------------|
                      |--0-0--0-0--0-0--0-0--|






Chorus
                     PM------|     PM------------|
|---------------------------------------------------|
|---------------------------------------------------|
|---------------------------------------------------|
|-----4-5-------4/5--5-5-5-5-5--4--4-4-4---5-4------|
|-2---2-3---5---2/3--3-3-3-3-3--2--2-2-2---3-2-5-4--|
|-0---------3----------------------------------3-2--|

                        PM--------------------------|
|-----------------|    |-----------------------------|
|-----------------|    |-----------------------------|
|-----------------|    |-----------------------------|
|------4-5----7---|    |4-4-4-4-4-4-4-4-4-4-4-4-4-4-4| x2
|-2----2-3----5---|    |2-2-2-2-2-2-2-2-2-2-2-2-2-2-2|
|-0---------------|    |-----------------------------|

 NOTE: Play the figure above only
 Once on the 2nd Chorus.

BRIDGE
                          PM--------------------------|
|--------------------|   |-----------------------------|
|--------------------|   |-----------------------------|
|--------------------|   |-----------------------------|
|-2--------4--2------|   |4-4-4-4-4-4-4-4-4-4-4-4-4-4-4|
|-0--5--2--2--0--5--4|   |2-2-2-2-2-2-2-2-2-2-2-2-2-2-2|
|----3--0--------3--2|   |-----------------------------|


SOLO SECTION(2:27)
 PM----------------------------------|
|-------------------------------------|
|-------------------------------------|
|-------------------------------------|
|-------------------------------------| x2
|-------------------------------------|
|-00-00-00-00--0000----00-00-00-0-0000|

 PM----------------------------------|
|-------------------------------------|
|-------------------------------------|
|-------------------------------------|
|-------------------------------------| x2
|-22-22-22-22--2222----22-22-22-2-2222|
|-00-00-00-00--0000----00-00-00-0-0000|


***Play Chorus Part throughout solo after figure above****



Ending
 
 PM----------------------------------|
|-------------------------------------|
|-------------------------------------|
|-------------------------------------|
|-------------------------------------| x1 (then play figure below) 
|-22-22-22-22--2222----22-22-22-2-2222|
|-00-00-00-00--0000----00-00-00-0-0000|


 PM---------------------------------|
|-------------------------------------||-------------------------------------|
|-------------------------------------||-------------------------------------|
|------------------------------------5||-55-55-55-55--5557----77-77-77-7-7779|
|------------------------------------5||-55-55-55-55--5557----77-77-77-7-7779| 
|-22-22-22-22--2222----22-22-22-2-2223||-33-33-33-33--3335----55-55-55-5-5557|
|-00-00-00-00--0000----00-00-00-0-000-||------------------------------------0|

      |--------------------------PLAY TWICE-----------------------------|


|---------------------------------|
|---------------------------------|
|---------------------------------|
|---------------------------------| 
|-22-22-22-2--2222----22-22--2-222|
|-00-00-00-0--0000----00-00--0-000|


Arrangement:
Main
Verse
Chorus
Main
Verse
Chorus
Bridge
Solo Section
Chorus X2
Main
Ending
Добавлено: 20.12.2015
Вам также может быть интересно:
Другие материалы по этой песне:
  • Аккорды и текст

Страница создана 20.12.2015
http://primanota.ru/trouble-in-tokyo/let-it-die-chords.htm
Привет, Гость.
Предлагаем пройти революционный курс по гитаре.
Подарок от PrimaNota.Ru, забирай!