PrimaNota.ru - самый крупный в мире бесплатный архив песенных текстов, аккордов, табулатур и нот


Trophy Eyes - In Return - таба, видео

Регистрация Запомнить меня
Войти через:  Facebook Google Twitter Vk Yandex Mail.ru

Trophy Eyes - In Return - таба, видео

Печатать
Просмотров: 48
-------------------------------------------------------------------------------
                             In Return - Trophy Eyes
-------------------------------------------------------------------------------

The two story house where we started again...

D#|-----------|       
A#|-----------|       
F#|-11--11--7-| <---- These are the chords you'll need. Figure out the strumming pattern yourselves.
C#|-9---10--5-|
G#|-9---10--5-|
C#|-9---10--5-|

In an empty fucking house...

D#|----------------------------------------------|
A#|----------------------------------------------|
F#|----------------------------------------------|
C#|-4444-2222-55555555-00000000-55555555----[X2]-|
G#|-2222-2222-55555555-00000000-55555555---------|
C#|------2222-55555555-00000000-55555555---------|

The tests came in, you were sick...

D#|---------------------------------------------------------|
A#|---3-----0-----------------------------------------------|
F#|--0-0---0--------------------[X4]------------------------|
C#|-4-----5-----7-5-9---7-9-12-----------0~---[LET IT RING]-|
G#|--------------------------------------0~-----------------|
C#|--------------------------------------0~-----------------|

Mum, now that I've been in love myself...

D#|-----------------------------------------------------------------------------|
A#|-----------------------------------------------------------------------------|  
F#|-----------------------------------------------------------------------------|
C#|-200-200-5555555555-999-444-555555-4-777-200-200-555555555-99-44-5~--5555555-| 
G#|-200-200-5555555555-999-444-555555-2-555-200-200-555555555-99-44-5~--5555555-| 
C#|-200-200-5555555555-999-444-555555-------200-200-555555555-99-44-5~--5555555-|
                                                                        .......
Not like you had it easy...

D#|----------------------------------------------------------|
A#|----------------------------------------------------------|
F#|----------------------------------------------------------|
C#|-5-5-5-5-5-5-5-5--4-4-4-4--2-2-2-2--5-5-5-5-5-5-5-5--0-2~-|
G#|-5-5-5-5-5-5-5-5--2-2-2-2--2-2-2-2--5-5-5-5-5-5-5-5--0-2~-|
C#|-5-5-5-5-5-5-5-5-----------2-2-2-2--5-5-5-5-5-5-5-5--0-2~-|

D#|------------------------------------------------------------|
A#|------------------------------------------------------------|
F#|------------------------------------------------------------|
C#|-5-5-5-5-5-5-5-5--4-4-4-4--2-2-2-2--5-5-5-5-5-5-5-5--9-4-5~-|
G#|-5-5-5-5-5-5-5-5--2-2-2-2--2-2-2-2--5-5-5-5-5-5-5-5--9-4-5~-|
C#|-5-5-5-5-5-5-5-5-----------2-2-2-2--5-5-5-5-5-5-5-5--9-4-5~-|

D#|------------------------------------------------------------|
A#|------------------------------------------------------------|
F#|-------------------------[REPEAT AS MANY TIMES AS YOU NEED]-|
C#|------------------------------------------------------------|
G#|-12-12-9~----5-9-7~-----------------------------------------|
C#|------------------------------------------------------------|

Apologise, you'll never get those years back...
 
D#|---------------------------------------------------------------|
A#|---------------------------------------------------------------|
F#|-141414-111111111111111111111111---777-11-999999999999----[X2]-|
C#|-x-x-x--x-x-x-x-x-x-x-x-x-x-x-x----xxx-x--xxxxxxxxxxxx---------|
G#|-121212-9-9-9-9-9-9-9-9-9-9-9-9----555-9--777777777777---------|
C#|---------------------------------------------------------------|

And now, I've been in love myself...
 
D#|-------------------------|
A#|-------------------------|
F#|-[REPEAT THE FOURTH BAR]-|
C#|-------------------------|
G#|-------------------------|
C#|-------------------------|

And I know, even after everything I've done...

D#|---------------------------------------------------------------------------------------|
A#|---------------------------------------------------------------------------------------|
F#|---------------------------------------------------------------------------------------|
C#|-200-200-5555555555-999-444-555555-4-777-200-200-555555555-999-444-5555555555-20-20-0~-|
G#|-200-200-5555555555-999-444-555555-2-555-200-200-555555555-999-444-5555555555-20-20-0~-|
C#|-200-200-5555555555-999-444-555555-------200-200-555555555-999-444-5555555555-20-20-0~-|
                                                                                       .
Добавлено: 25.06.2016
Другие материалы по этой песне:
  • Аккорды и текст

Страница создана 25.06.2016
http://primanota.ru/trophy-eyes/in-return-chords.htm
Привет, Гость.
Предлагаем пройти революционный курс по гитаре.
Подарок от PrimaNota.Ru, забирай!