PrimaNota.ru - самый крупный в мире бесплатный архив песенных текстов, аккордов, табулатур и нот


Trooper - Tari Ca Muntii - бас-таба, видео

Регистрация Запомнить меня
Войти через:  Facebook Google Twitter Vk Yandex Mail.ru

Trooper - Tari Ca Muntii - бас-таба, видео

Печатать
Просмотров: 92
Уроки эстрадного вокала в Санкт-Петербурге
-------------------------------------------------------------------------------
                             Tari Ca Muntii - Trooper
-------------------------------------------------------------------------------
Tabbed by: Andu Needle
E-mail: sulfur_in_my_lungs@yahoo.com

Intro:

G|---------------------------------------------------------------------------|
D|------------------------------57-----79------------------------------------|
A|----------------------------5----0-7---------------------------------------|
E|-00000000-00000000-00000003~-----------------------------------------------|(x2)

Verse:

G|---------------------------------------------------------------------------|
D|-----------------------------57-----79-------------------------------------|
A|---------------------------5----0-7----------------------------------------|
E|-00-000-000-000-000-000-3~-------------------------------------------------|(x4)

Pre chorus:

G|---------------------------------------------------------------------------|
D|---------------------------------------------------------------------------|
A|-22222222-3333-555-222222222-3333-000-222222222-3333-555-22222222-0--------|
E|---------------------------------------------------------------------------|

Chorus:

G|---------------------------------------------------------------------------|
D|---------------------------------------------------------------------------|
A|----7----7----(10)----(12)----(10)/(12)------------------------------------|
E|-00---00---00------00------00----------------------------------------------|(x3)

G|---------------------------------------------------------------------------|
D|---------------------------------------------------------------------------|
A|-33333333-55555555---------------------------------------------------------|
E|---------------------------------------------------------------------------|

Intro x2
Verse 2 is the same as the first one!
Pre chorus 2 is the same as the first one!
Chorus 2 is the same as the first one!

During solo you play intro twice and pre chorus once!
For the second part of the solo you play verse once!

Last chorus is the same as the first one!

Ending:

G|---------------------------------------------------------------------------|
D|---------------------------------------------------------------------------|
A|-----3~--5~--3-5-----------------------------------------------------------|
E|-0~------------------------------------------------------------------------|(x2)

The ending note is an E!
Добавлено: 10.08.2015
Другие материалы по этой песне:
  • Аккорды и текст

Страница создана 10.08.2015
http://primanota.ru/trooper/tari-ca-muntii-chords.htm
Привет, Гость.
Предлагаем пройти революционный курс по гитаре.
Подарок от PrimaNota.Ru, забирай!