PrimaNota.ru - самый крупный в мире бесплатный архив песенных текстов, аккордов, табулатур и нот


Tronic - Tele Culia - бас-таба, видео

Регистрация Запомнить меня
Войти через:  Facebook Google Twitter Vk Yandex Mail.ru

Tronic - Tele Culia - бас-таба, видео

Печатать
Просмотров: 98
++++++++++++++++++++++
| Tronic- Tele Culiá |
++++++++++++++++++++++


"Y al despertar tiro desde mi ventana el puto televisor..."

Tuning: EADG


Intro.
1.
G|-------------------------------------|
D|-------------------------------------|
A|-55555555-55555555-------------------|
E|-------------------33333333-55555555-|

2.
G|-------------------44444444-55555555-|
D|-------------------------------------|
A|-55555555-55555555-------------------|
E|-------------------------------------|

Verse
"Me siento mal..."
3.
G|---------------------------------------------------|
D|---------------------------------------------------|
A|-55555555-55555555-22222222-22222222---------------|
E|-------------------------------------55x--55x--33x-|

"Solo enseñan porquerías..."
4.
G|---------------------------------------------------|
D|-------------------------------------77x--77x--55x-|
A|-55555555-55555555-22222222-22222222---------------|
E|---------------------------------------------------|

Chorus
"Fucking tele reculiá..."
5.
G|-------------------------------------------------------------------------|
D|-------------------44444444-44444544-00000000-00000000-22222222-22222222-|
A|-------------------------------------------------------------------------|--x2
E|-33333333-33333333-------------------------------------------------------|

Outro
6.
G|-------------------44444444-55555555-|
D|-------------------------------------|
A|-55555555-55555555-------------------|
E|-------------------------------------|

Verso
"Vuelvo a soñar..."
7.
G|---------------------------------------------------|
D|-------------------------------------77x--77x--55x-|
A|-55555555-55555555-22222222-22222222---------------|--x2
E|---------------------------------------------------|

Chorus
"Fucking tele reculiá..."
8.
G|-------------------------------------------------------------------------|
D|-55555555-55555555-44444444-44444544-00000000-00000000-22222222-22222222-|
A|-------------------------------------------------------------------------|
E|-------------------------------------------------------------------------|

"Fucking tele reculiá..."
9.
G|--------------------|
D|-5-5-5-5-5-5-5-5-2~-|
A|--------------------|
E|--------------------|

Bridge
10.
G|------------------------------|
D|-555x----444x----000x----222x-|
A|------------------------------|
E|------------------------------|

11.
G|-------------------------------------|
D|-55555555-55555555-4~-4\2-0~---0~-2~-|
A|-------------------------------------|
E|-------------------------------------|

12.
G|-----------------------------------------------------------------|
D|---------------------------------0-0-0-0-0-0-0-0-2-2-2-2-2-2-2-2-|
A|-----------------------------------------------------------------|
E|-3-3-3-3-3-3-3-3-2-2-2-2-2-2-2-2---------------------------------|

Chorus
"Fucking tele reculiá..."
13.
G|--------------------------------------------------------------------|
D|---------------------------------00000000-00000000-2222222222222222-|
A|--------------------------------------------------------------------|
E|-3-3-3-3-3-3-3-3-2-2-2-2-2-2-2-2------------------------------------|

"Solo piensas en ganar..."
14.
G|-------------------------------------------------------------------------|
D|-------------------------------------00000000-00000000-22222222-22222222-|
A|-------------------------------------------------------------------------|
E|-33333333-33333333-22222222-22222222-------------------------------------|

Outro
15.
G|-----------------------------------|
D|-5-5-5-5-5-5-5-5-2~-------------0~-|
A|-----------------------------------|
E|-----------------------------------|


Lyrics:


Me siento mal
Cuando ensiendo en las mañanas la televisión
Nunca real
Solo enseñan porquerías, nunca la verdad

Fucking tele reculiá
Te odio tanto
Solo piensas en ganar
Mostrando mierda, vendiendo mierda

Vuelvo a soñar
Que destruyen los canales de la televisión
Y al despertar
Tiro desde mi ventana el puto televisor



+++++++++++++++++++++++++++++++++
| RaiLeff                       |
| Underground__Dora@hotmail.com |
+++++++++++++++++++++++++++++++++
Добавлено: 19.06.2012
Другие материалы по этой песне:

Страница создана 21.03.2012
http://primanota.ru/tronic/tele-culia-chords.htm
Привет, Гость.
Предлагаем пройти революционный курс по гитаре.
Подарок от PrimaNota.Ru, забирай!