PrimaNota.ru - самый крупный в мире бесплатный архив песенных текстов, аккордов, табулатур и нот


Tronic - Somos Iguales - бас-таба, видео

Регистрация Запомнить меня
Войти через:  Facebook Google Twitter Vk Yandex Mail.ru

Tronic - Somos Iguales - бас-таба, видео

Печатать
Просмотров: 115
+++++++++++++++++++++++++
| Tronic- Somos Iguales |
+++++++++++++++++++++++++


"Lo que pa ti es extraño para mi esta bien..."

Tuning: EADG


Verse
"Quiero que exista..."
1.
G|------------------------------------------------------|
D|------------------------------------------------------|
A|-11111111-11111111------------------11111111-33333333-|
E|-------------------1111111-11111111-------------------|

"Plantas para fumar..."
2.
G|-----------------------------------------------------------------------------------------|
D|-------------------------------------33333333-33333333-----------------------------------|
A|-55555555-55555555-11111111-11111111-------------------11111111-33333333-55-5557-7777777-|
E|-----------------------------------------------------------------------------------------|

Pre-Chorus
"Si soy ultra normal..."
3.
G|---------------------------------------------------------------------------|
D|---------------------------------------------------------------------------|
A|-11111111-11111111-11111111-11111111-00000000-00000000-11x------33x--------|
E|---------------------------------------------------------------------------|

Chorus
"Entiende bieen..."
4.
G|-------------------------------------------------------------------------|
D|--------------------------------2222-33333333-33333333-33333333-33333533-|
A|-55555555-55555555-55555555-5555-----------------------------------------|
E|-------------------------------------------------------------------------|

"No te da poder..."
5.
G|-------------------------------------------------------------------------|
D|-------------------------------------------------------------------------|
A|-00000000-00000000-00000000-00000000-11111111-33333333-5~----------------|
E|-------------------------------------------------------------------------|

Verse
"Anoche te oí decir..."
6.
G|------------------------------------------------------|
D|------------------------------------------------------|
A|-11111111-11111111------------------11111111-33333333-|
E|-------------------1111111-11111111-------------------|

"Pero te puedo decir..."
7.
G|-----------------------------------------------------------------------------------------|
D|-------------------------------------33333333-33333333-----------------------------------|
A|-55555555-55555555-11111111-11111111-------------------11111111-33333333-55-5557-7777777-|
E|-----------------------------------------------------------------------------------------|

Pre-Chorus
"Estay todo el día..."
8.
G|---------------------------------------------------------------------------|
D|-------------------------------------77777777-77777777---------------------|
A|-11111111-11111111-11111111-11111111-------------------11x------33x--------|
E|---------------------------------------------------------------------------|

Chorus
"Entiende bieen..."
9.
G|-------------------------------------------------------------------------|
D|--------------------------------2222-33333333-33333333-33333333-33333533-|
A|-55555555-55555555-55555555-5555-----------------------------------------|
E|-------------------------------------------------------------------------|

"No te da poder..."
10.
G|-------------------------------------|
D|-----7777-77777777-----7777-77777777-|
A|-0000--------------0000--------------|
E|-------------------------------------|

"Si al final..."
11.
G|-------------------------------------------------------------------------|
D|--------------------------------2222-33333333-33333333-33333333-33333533-|
A|-55555555-55555555-55555555-5555-----------------------------------------|
E|-------------------------------------------------------------------------|

"Rechazar..."
12.
G|------------------------------------------|
D|------------------------------------------|
A|-00000000-00000000-11x---------33x--------|
E|------------------------------------------|

Bridge
13.
G|---------------------------------------------------------------------------|
D|---------------------3~-3-------3-2-----------------------3~-3-------3h5p3-|
A|-5-5-5-5-5-5-5-5-1~-1-----3~--3-----55555555-55555555-1~-1-----3~-33-------|
E|---------------------------------------------------------------------------|

14.
G|--------------------------------------------------------------------------------|
D|---------------------3~-3-------3-2---------------------------------------------|
A|-5-5-5-5-5-5-5-5-1~-1-----3~--3-----11111111-11111111-33333333/1212121212121212-|
E|--------------------------------------------------------------------------------|

Chorus
"Entiende bieen..."
15.
G|-------------------------------------------------------------------------|
D|-------------------------------------33333333-33333333-33333333-33333533-|
A|-------------------------------------------------------------------------|
E|-------------------------------------------------------------------------|

"No te da poder..."
16.
G|-------------------------------------|
D|-----7777-77777777-----7777-77777777-|
A|-0000--------------0000--------------|
E|-------------------------------------|

"Si al final..."
17.
G|-33333333-33333333-33333333-0000-----------------------------------------|
D|--------------------------------3333-00000000-00000000-00000000-00000000-|
A|-------------------------------------------------------------------------|
E|-------------------------------------------------------------------------|

"Rechazar, respetame..."
18.
G|-------------------------------------------------------------------------|
D|-----7777-77777777-----7777-77777777-------------------------------------|
A|-0000--------------0000--------------11111111-33333333-5~----------------|
E|-------------------------------------------------------------------------|


Lyrics:


Quiero que exista un lugar donde logremos hacer
Lo que siempre hemos soñado
Plantas para fumar, espacios para crear
Por que tu piensas que estoy mal?
Si soy ultra normal, y a nadie le hago el mal no entiendo

Entiende bien lo que pa ti es extraño para mi esta bien
Que tu tengas mas años no te da poder, respétame
Somos iguales

Anoche te oí decir que aquella chica esta mal 
Que no trabaja y es drogadicta
Pero te puedo decir que trabaja mas que tu 
Tiene un hijo y estudia mientras tu
Estay todo el dia espiando e inventando cosas

Si al final lo que pa ti es normal a mi me pone mal
Y no por eso yo te voy a rechazar



+++++++++++++++++++++++++++++++++
| RaiLeff                       |
| Underground__Dora@Hotmail.Com |
+++++++++++++++++++++++++++++++++
Добавлено: 12.04.2012
Другие материалы по этой песне:
  • Аккорды и текст

Страница создана 12.04.2012
http://primanota.ru/tronic/somos-iguales-chords.htm
Привет, Гость.
Предлагаем пройти революционный курс по гитаре.
Подарок от PrimaNota.Ru, забирай!