PrimaNota.ru - самый крупный в мире бесплатный архив песенных текстов, аккордов, табулатур и нот


Tronic - Senora Ester - бас-таба, видео

Регистрация Запомнить меня
Войти через:  Facebook Google Twitter Vk Yandex Mail.ru

Tronic - Senora Ester - бас-таба, видео

Печатать
Просмотров: 99
++++++++++++++++++++++++
| Tronic- Señora Ester |
++++++++++++++++++++++++


"Por matar sufrirás y el remordimiento te consumirá..."

Tuning: EADG


Intro
1.
G|------------------------------------------------------------|
D|-3-3--3-333--3-222--2-2-5--5-----------------3-3--3-5-55-55-|
A|-----------------------------555-5-5-55-5555----------------|
E|------------------------------------------------------------|

Verse
"No entiendo porque.." 
2.                        
G|-------------------------------------------------------------------------|
D|-33333332-22222222-------------------33333533-22222222-------------------|
A|-------------------00000000-33333333-------------------00000000-33333333-|
E|-------------------------------------------------------------------------|

"Si el verdadero maricon..."
3.
G|-------------------------------------------------------22222222-00000000-|
D|-33333332-22222222-------------------33333333-22222222-------------------|
A|-------------------00000000-33333333-------------------------------------|
E|-------------------------------------------------------------------------|

Pre-Chorus
4.
G|-------------------|
D|-33333333-33330000-|
A|-------------------|
E|-------------------|

Chorus
"Odio siento..."
5.
G|-------------------------------------------------------------------------|
D|-------------------33333333-22222222-------------------33333333-22222222-|
A|-33333333-33333333-------------------33333333-33333333-------------------|
E|-------------------------------------------------------------------------|

"Morirás con dolor..."
6.
G|----------------------------------------------------|
D|-------------------33333333-22222222x---------------|
A|-33333333-33333333----------------------------------|
E|----------------------------------------------------|

Verse
"Señora Ester yo creo que..."
7.
G|-------------------------------------------------------------------------|
D|-33333332-22222222-------------------33333533-22222222-------------------|
A|-------------------00000000-33333333-------------------00000000-33333333-|
E|-------------------------------------------------------------------------|

"Por eso le pido el favor..."
8.
G|-------------------------------------------------------22222222-00000000-|
D|-33333332-22222222-------------------33333333-22222222-------------------|
A|-------------------00000000-33333333-------------------------------------|
E|-------------------------------------------------------------------------|

Pre-Chorus
9.
G|-------------------|
D|-33333333-33330000-|
A|-------------------|
E|-------------------|

Chorus
"Odio siento..."
10.
G|-------------------------------------------------------------------------|
D|-------------------33333333-22222222-------------------33333333-22222222-|
A|-33333333-33333333-------------------33333333-33333333-------------------|
E|-------------------------------------------------------------------------|

"Morirás con dolor..."
11.
G|-------------------------------------------------------------------------|
D|-------------------33333333-22222222----------00002222-33333333-22222222-|
A|-33333333-33333333-------------------33333333----------------------------|
E|-------------------------------------------------------------------------|

Outro
12.
G|------------------------------------------------------------|
D|-3-3--3-333--3-222--2-2-5--5-----------------3-3--3-5-55-55-|
A|-----------------------------555-5-5-55-5555----------------|
E|------------------------------------------------------------|

Chorus
"Odio siento..."
13.
G|-------------------------------------------------------------------------|
D|-------------------33333333-22222222-------------------33333333-22222222-|
A|-33333333-33333333-------------------33333333-33333333-------------------|
E|-------------------------------------------------------------------------|

"Morirás con dolor..."
14.
G|-------------------------------------------------------------------------|
D|-------------------33333333-22222222----------00002222-33333333-22222222-|
A|-33333333-33333333-------------------33333333----------------------------|
E|-------------------------------------------------------------------------|

Bridge
"El remodimiento te consumirá..."
15.
G|----------------------------------------------------------------|
D|----------------------------------------------------------------|
A|----------------------------------------------------------------|
E|-55x--------33x---3x--3x----111x----1x---1-3x---3x--3x----------|

Chorus
"Odio siento..."
16.
G|-------------------------------------------------------------------------|
D|-------------------------------------------------------------------------|
A|-------------------------------------------------------------------------|--x2
E|-55555555-55555555-33333333-33333333-11111111-11111111-33333333-33333333-|

Outro
17.
G|-------------------|
D|-------------------|
A|-3~----------------|
E|-------------------|


Lyrics:


No entiendo porque Sra Ester le grita maricon a el
Porque se besa con otro chico y que tanta la wea
Si el verdadero maricon es el que roba en la estación
El que apuñala por detras, el que asesina solo para ganar

Odio siento por ese maldito bastardo
Que asesinó a mi amigo
Al tonto le imagina que le irá mucho peor
Morirás con dolor maldito bastardo

Sra Ester yo creo que la venganza esta de mas
Porque el de arriba si que sabe bien juzgar a los demas
Por eso le pido el favor de que rekuerde bien usted
Que el verdadero maricon es el que asesina para ganar

Morirás con dolor maldito bastardo maricon
Por matar sufrirás y el remordimiento te consumirá
Por robar, por matar, maldito bastardo morirás



+++++++++++++++++++++++++++++++++
| RaiLeff                       |
| Underground__Dora@Hotmail.Com |
+++++++++++++++++++++++++++++++++
Добавлено: 12.03.2012
Другие материалы по этой песне:
  • Аккорды и текст

Страница создана 12.03.2012
http://primanota.ru/tronic/senora-ester-chords.htm
Привет, Гость.
Предлагаем пройти революционный курс по гитаре.
Подарок от PrimaNota.Ru, забирай!