PrimaNota.ru - самый крупный в мире бесплатный архив песенных текстов, аккордов, табулатур и нот


Tronic - Pitijuay - бас-таба, видео

Регистрация Запомнить меня
Войти через:  Facebook Google Twitter Vk Yandex Mail.ru

Tronic - Pitijuay - бас-таба, видео

Печатать
Просмотров: 51
++++++++++++++++++++
| Tronic- Pitijuay |
++++++++++++++++++++


"Paren de atormentar, si nos gusta fumarla..."

Tuning: EADG


Verse
"Paren de atormentar..."
1.
G|--------------------------------------------------------------------------|
D|------------------------------------------------------------5x--5-----5-7-|
A|----------------33-55555555-55555555-22222222-22222222------------5-5-----|
E|-33333333-333333---------------------------------------3x--3--------------|

"Mama siempre la cuidará..."
2.
G|--------------------------------------------------------------------------|
D|-55555555-555555--------------------------------------------5x--5-----4---|
A|----------------33-55555555-55555555-22222222-22222222------------5-5---5-|
E|-------------------------------------------------------3x--3--------------|

Pre-Chorus
"No como ese polvo..."
3.
G|------------------------------------|
D|------2~--2-----2------5------------|
A|--------------------------5~--------|
E|-0~-0-------0-0---0--3--------------|

Chorus
"Marihuana eres total..."  
4.                           
G|-------------------------------------------------------------------------|
D|-------------------------------------33333333-33333333-00000000-00000000-|
A|-------------------33333333-33333333-------------------------------------|
E|-33333333-33333333-------------------------------------------------------|

"Con razón tu power aumentó..."
5.
G|-------------------------------------------------------------------------|
D|-------------------------------------33333333-33333333-00000000-00000000-|
A|-------------------33333333-33333333-------------------------------------|
E|-33333333-33333333-------------------------------------------------------|

6.
G|-----------------------------|
D|-00000000-0x-----------------|
A|-----------------------------|
E|-----------------------------|

Verse
"Nelson tiene razón..."
7.
G|--------------------------------------------------------------------------|
D|------------------------------------------------------------5x--5-----5-7-|
A|-------------------55555555-55555555-22222222-22222222------------5-5-----|
E|-33333333-33333333-------------------------------------3x--3--------------|

"Igual que tanta la weá..."
8.
G|--------------------------------------------------------------------------|
D|-55555555-555555--------------------------------------------5x--5-----4---|
A|----------------33-55555555-55555555-22222222-22222222------------5-5---5-|
E|-------------------------------------------------------3x--3--------------|

Pre-Chorus
"Si yo no digo nada..."
9.
G|------------------------------------|
D|------2~--2-----2------5------------|
A|--------------------------5~--------|
E|-0~-0-------0-0---0--3--------------|

Chorus
"Marihuana eres total..."  
10.                           
G|-------------------------------------------------------------------------|
D|-------------------------------------33333333-33333333-00000000-00000000-|
A|-------------------33333333-33333333-------------------------------------|
E|-33333333-33333333-------------------------------------------------------|

"Con razón tu power aumentó..."
11.
G|-------------------------------------------------------------------------|
D|-------------------------------------33333333-33333333-00000000-00000000-|
A|-------------------33333333-33333333-------------------------------------|
E|-33333333-33333333-------------------------------------------------------|

Outro
"Marihuana, arriba el volón..."
12.
G|------------------------------------------------------------------------|
D|-33333333-33333333-------------------33333333-33333333-0000000-00000000-|
A|-------------------33333333-33333333------------------------------------|
E|------------------------------------------------------------------------|

"Hey el volón, el volón..."
13.
G|-------------------------------------------------------------------------|
D|-------------------------------------------------------------------------|
A|-22222222-33333333-55555555-55555555-22222222-33333333-55555555-55555555-|
E|-------------------------------------------------------------------------|

"El volón, el volón..."
14.
G|-44444444-55555555-------------------44444444-55555555-7~----------------|
D|-------------------00000000-00000000-------------------------------------|
A|-------------------------------------------------------------------------|
E|-------------------------------------------------------------------------|


Lyrics:


Paren de atormentar si nos gusta fumarla
La planta personal que vive en el hogar
Mama siempre la cuidará ella tambien se aplica
Es algo natural no como ese polvo 
Que te hace tiritar produce paranoia

Marihuana eres total
Tu volón nos maximiza mas
Con razón tu power aumentó
En la casa tu estas mejor

Nelson tiene razón, hay ke legalizarla
Porque eso de esconder, si todos la fuman
Igual que tanta la weá, es algo que nos gusta
Dejen fumar en paz si yo no digo nada 
Del que toma todo el dia y mata a su familia

Marihuana, arriba el volón
Marihuana, eres la mejor



+++++++++++++++++++++++++++++++++
| RaiLeff                       |
| Underground__Dora@Hotmail.Com |
+++++++++++++++++++++++++++++++++
Добавлено: 16.11.2013
Другие материалы по этой песне:
  • Аккорды и текст

Страница создана 16.11.2013
http://primanota.ru/tronic/pitijuay-chords.htm
Привет, Гость.
Предлагаем пройти революционный курс по гитаре.
Подарок от PrimaNota.Ru, забирай!