PrimaNota.ru - самый крупный в мире бесплатный архив песенных текстов, аккордов, табулатур и нот


Tronic - Picao A Vit - бас-таба, видео

Регистрация Запомнить меня
Войти через:  Facebook Google Twitter Vk Yandex Mail.ru

Tronic - Picao A Vit - бас-таба, видео

Печатать
Просмотров: 65
+++++++++++++++++++++++
| Tronic- Picao A Vit |
+++++++++++++++++++++++


"Soy medio chico y me gusta la paz..."

Tuning: EADG


Verse
"Caminando por el bosque..."
1.
G|-----------------------------------------------------------------------------|
D|---5---5------5x----5---5---5-02---------5---5------5x----5---5---5-02-------|
A|-3---3---3-23---------5---5------3x----3---3---3-23---------5---5------3x----|
E|-----------------------------------------------------------------------------|

Chorus
"Pobre osito quería carretear..."
2.
G|--------------------2---2--------------------------|
D|-3---3---5-02---------2---2-3-23-55x--55x--5-3-2-0-|
A|---3---3------3x-----------------------------------|--x2
E|---------------------------------------------------|

Verse
"Siguiendo por el bosque..."
3.
G|-----------------------------------------------------------------------------|
D|---5---5------5x----5---5---5-02---------5---5------5x----5---5---5-02-------|
A|-3---3---3-23---------5---5------3x----3---3---3-23---------5---5------3x----|
E|-----------------------------------------------------------------------------|

Chorus
"Oye Robin dime en cual te vay..."
4.
G|--------------------2---2--------------------------|
D|-3---3---5-02---------2---2-3-23-55x--55x--5-3-2-0-|
A|---3---3------3x-----------------------------------|--x2
E|---------------------------------------------------|

Verse
"Corriendo por el bosque..."
5.
G|-------------------------------------------------------------------------|
D|--------------5555-55555555-5555------------------5555-55555555-5555-----|
A|-33333333-3333------------------3333-33333333-3333------------------3333-|
E|-------------------------------------------------------------------------|

Chorus
"De repente empiezo a despertar..."
6.
G|---------------------------------------------------|
D|-33333333-5555--------------3333-55555555-55332200-|
A|--------------3333-00000000------------------------|
E|---------------------------------------------------|

"Que te pasa canibal de mierda..."
7.
G|---------------------------------------------------|
D|-33333333-5555-----77777777-3333-55555555-55332200-|
A|--------------3333---------------------------------|
E|---------------------------------------------------|

Outro
8.
G|-------------------|
D|-------------------|
A|-3~----------------|
E|-------------------|


Lyrics:


Caminando por el bosque con un oso me encontré
Me dijo que hace tiempo no tenía pa beber
Porque la caperusita su copete le robó
Se fué con los cerditos en avión pa Puerto Montt

Pobre osito quería carretear
Y habían cazadores queriendolo cazar
Y en la disco que estaba en Puerto Montt
La caperusita se tomaba la de ron

Siguiendo por el bosque una pluma me atacó
Y sin darme cuenta la chaqueta me cortó
Y era un tipo extraño con camisa apretá
Que tiraba flechas con un arco peculiar

Oye Robin dime en cual te vay
No te ando vacilando, solo ando en mi volá
Soy medio chico y me gusta la paz
Pero si me provocas te puedo hacer cagar

Corriendo por el bosque una culebra me atacó
Y sin darme cuenta una pierna me mordió
Y en cinco minutos no podía caminar
Todo se nublaba, quedé pa la cagá

De repente empiezo a despertar
Estaba en una olla y me querían mangiar
Que te pasa canibal de mierda
Le saque mi pluma y lo hice cagar

Picao a vit



+++++++++++++++++++++++++++++++++
| RaiLeff                       |
| Underground__Dora@Hotmail.Com |
+++++++++++++++++++++++++++++++++
Добавлено: 15.06.2013
Другие материалы по этой песне:
  • Аккорды и текст

Страница создана 15.06.2013
http://primanota.ru/tronic/picao-a-vit-chords.htm
Привет, Гость.
Предлагаем пройти революционный курс по гитаре.
Подарок от PrimaNota.Ru, забирай!