PrimaNota.ru - самый крупный в мире бесплатный архив песенных текстов, аккордов, табулатур и нот


Tronic - Perfect - бас-таба, видео

Регистрация Запомнить меня
Войти через:  Facebook Google Twitter Vk Yandex Mail.ru

Tronic - Perfect - бас-таба, видео

Печатать
Просмотров: 53
+++++++++++++++++++
| Tronic- Perfect |
+++++++++++++++++++


"No temas mas, arriésgate..."

Tuning: EADG


Intro
1.
G|---------------------------------|
D|---------------------------------|
A|-------2-------2-------2-------2-|
E|-3-3-3---3-3-3---3-3-3---3-3-3---|

Verse
"Yo no quiero estar nunca mas así..."
2.
G|-------------------------------------------------------|
D|-------------------------------------------------------|
A|-33333333-33333333-22222222/77777777-00000000-00000000-|
E|-------------------------------------------------------|

"Queremos entregar, queremos aportar..."
3.
G|-------------------------------------------------------|
D|-------------------------------------------------------|
A|-33333333-33333333-22222222/77777777-00000000-00000000-|
E|-------------------------------------------------------|

Pre-Chorus
"Aventurar es bueno..."
4.
G|-------------|
D|-------------|
A|-3~----3~----|
E|-------------|

Chorus
"No temas mas, arriésgate..."
5.
G|-------------------------------------------------------------------------|
D|-55555555-55555555-44444444-44774444-22222222-00000000-------------------|
A|-------------------------------------------------------33333333-33333333-|
E|-------------------------------------------------------------------------|

Outro
"Atrévete a empezar..."
6.
G|-----------------|
D|-----------------|
A|-55-77-5555-5555-|
E|-----------------|

Verse
"La otra noche yo pude observar..."
7.
G|-------------------------------------------------------|
D|-------------------------------------------------------|
A|-33333333-33333333-22222222/77777777-00000000-00000000-|
E|-------------------------------------------------------|

"Regalaban te, regalaban pan..."
8.
G|-------------------------------------------------------|
D|-------------------------------------------------------|
A|-33333333-33333333-22222222/77777777-00000000-00000000-|
E|-------------------------------------------------------|

Pre-Chorus
"Todavía hay heroes..."
9.
G|-------------|
D|-------------|
A|-3~----3~----|
E|-------------|

Chorus
"Ayudar te arreglará..."
10.
G|-------------------------------------------------------------------------|
D|-55555555-55555555-44444444-44774444-22222222-00000000-------------------|
A|-------------------------------------------------------33333333-33333333-|--x2
E|-------------------------------------------------------------------------|

Outro
"No lo pienses mas..."
11.
G|-----------------|
D|-----------------|
A|-55-77-5555-5555-|
E|-----------------|

"No lo pienses, no lo pienses..."
12.
G|---------------------------------|
D|------------------------55555555-|
A|---------------33333333----------|--x3
E|-00x----22x----------------------|

13.
G|------------------------------------------------------|
D|------------------------------------------------------|
A|-55555555-7777999977777777-77777777-33333333-33333333-|
E|------------------------------------------------------|

14.
G|--------------------------------------------|
D|----------22224444-5~-----------------------|
A|-55555555--------------------------5~----3~-|
E|-----------------------------3~-------------|

Chorus
"Ayudar te arreglará..."  
15.
G|-------------------------------------------------------------------------|
D|-55555555-55555555-44444444-44774444-22222222-00000000-------------------|
A|-------------------------------------------------------33333333-33333333-|
E|-------------------------------------------------------------------------|

"Atrevete a empezar, así lo lograrás..."
16.
G|-------------------------------------|
D|-------------------------------------|
A|-55555555-77777777-22222222-77777777-|
E|-------------------------------------|

"Creyendo en ti seras mas fuerte..."
17.
G|-------------------------------------|
D|-------------------------------------|
A|-33333333-33333333-55555555-55555555-|
E|-------------------------------------|

Outro
18.
G|------------------------------------|
D|------------------------------------|
A|-------2-------2-------2-------2----|
E|-3-3-3---3-3-3---3-3-3---3-3-3---3~-|


Lyrics:


Yo no quiero estar nunca mas asi
Sentirse solo pone triste
Queremos entregar, queremos aportar
Al unirnos mas avanzaremos
Aventurar es bueno

No temas mas, arriésgate
Cree en ti te hará mas fuerte
Atrévete a empezar

La otra noche yo pude observar
Gente alimentando indigentes
Regalaban te, regalaban pan
Y esperando nada a cambio
Todavia hay heroes

Ayudar te arreglará
La vida se te hará mas perfect
No temas mas, arriésgate
Cree en ti te hará mas fuerte
No lo pienses mas

Creyendo en ti
Serás mas fuerte



+++++++++++++++++++++++++++++++++
| RaiLeff                       |
| Underground__Dora@Hotmail.Com |
+++++++++++++++++++++++++++++++++
Добавлено: 09.01.2014
Другие материалы по этой песне:
  • Аккорды и текст

Страница создана 09.01.2014
http://primanota.ru/tronic/perfect-chords.htm
Привет, Гость.
Предлагаем пройти революционный курс по гитаре.
Подарок от PrimaNota.Ru, забирай!